ISO-10303-21;
HEADER;
FILE_DESCRIPTION(('Creo Elements/Direct Modeling STEP Export'),'2;1');
FILE_NAME('SP7-39.stp','2024-09-12T10:00:47',(''),(''),
'Creo Elements/Direct Modeling STEP processor for AP214 (Solid Model)',
'Creo Elements/Direct Modeling 20.0  12-Nov-2016 (C) Parametric Technolo
gy GmbH','');
FILE_SCHEMA(('AUTOMOTIVE_DESIGN { 1 0 10303 214 1 1 1 1 }'));
ENDSEC;
DATA;
#10=CARTESIAN_POINT('',(0.,3.84217439480007,0.));
#20=DIRECTION('',(0.,-1.,0.));
#30=DIRECTION('',(-1.,0.,0.));
#40=AXIS2_PLACEMENT_3D('',#10,#20,#30);
#50=CONICAL_SURFACE('',#40,13.3591628419691,0.566722420649627);
#60=CARTESIAN_POINT('',(-13.3591628419691,3.84217439480007,0.));
#70=DIRECTION('',(-0.536869757920029,-0.843665136787629,0.));
#80=VECTOR('',#70,24.8834333558401);
#90=LINE('',#60,#80);
#100=CARTESIAN_POINT('',(-11.1253394528495,7.35252096831988,0.));
#110=VERTEX_POINT('',#100);
#120=CARTESIAN_POINT('',(-13.3591628419691,3.84217439480007,0.));
#130=VERTEX_POINT('',#120);
#140=EDGE_CURVE('',#110,#130,#90,.T.);
#150=ORIENTED_EDGE('',*,*,#140,.T.);
#160=CARTESIAN_POINT('',(0.,7.35252096831988,0.));
#170=DIRECTION('',(0.,1.,0.));
#180=DIRECTION('',(1.,0.,0.));
#190=AXIS2_PLACEMENT_3D('',#160,#170,#180);
#200=CIRCLE('',#190,11.1253394528495);
#210=CARTESIAN_POINT('',(11.1253394528495,7.35252096831988,0.));
#220=VERTEX_POINT('',#210);
#230=EDGE_CURVE('',#110,#220,#200,.T.);
#240=ORIENTED_EDGE('',*,*,#230,.F.);
#250=CARTESIAN_POINT('',(13.3591628419691,3.84217439480007,
-1.63602560137057E-15));
#260=DIRECTION('',(0.536869757920029,-0.843665136787629,
-6.57475830595778E-17));
#270=VECTOR('',#260,24.8834333558401);
#280=LINE('',#250,#270);
#290=CARTESIAN_POINT('',(13.3591628419691,3.84217439480007,0.));
#300=VERTEX_POINT('',#290);
#310=EDGE_CURVE('',#220,#300,#280,.T.);
#320=ORIENTED_EDGE('',*,*,#310,.F.);
#330=CARTESIAN_POINT('',(0.,3.84217439480007,0.));
#340=DIRECTION('',(0.,1.,0.));
#350=DIRECTION('',(1.,0.,0.));
#360=AXIS2_PLACEMENT_3D('',#330,#340,#350);
#370=CIRCLE('',#360,13.3591628419691);
#380=EDGE_CURVE('',#130,#300,#370,.T.);
#390=ORIENTED_EDGE('',*,*,#380,.T.);
#400=EDGE_LOOP('',(#390,#320,#240,#150));
#410=FACE_OUTER_BOUND('',#400,.T.);
#420=ADVANCED_FACE('',(#410),#50,.T.);
#430=CARTESIAN_POINT('',(0.,2.5,0.));
#440=DIRECTION('',(0.,1.,0.));
#450=DIRECTION('',(1.,0.,0.));
#460=AXIS2_PLACEMENT_3D('',#430,#440,#450);
#470=TOROIDAL_SURFACE('',#460,11.25,2.5);
#480=CARTESIAN_POINT('',(-11.25,2.5,0.));
#490=DIRECTION('',(0.,0.,1.));
#500=DIRECTION('',(-1.,0.,0.));
#510=AXIS2_PLACEMENT_3D('',#480,#490,#500);
#520=CIRCLE('',#510,2.5);
#530=CARTESIAN_POINT('',(-11.25,0.,0.));
#540=VERTEX_POINT('',#530);
#550=EDGE_CURVE('',#130,#540,#520,.T.);
#560=ORIENTED_EDGE('',*,*,#550,.T.);
#570=ORIENTED_EDGE('',*,*,#380,.F.);
#580=CARTESIAN_POINT('',(11.25,2.5,0.));
#590=DIRECTION('',(0.,0.,-1.));
#600=DIRECTION('',(1.,0.,0.));
#610=AXIS2_PLACEMENT_3D('',#580,#590,#600);
#620=CIRCLE('',#610,2.5);
#630=CARTESIAN_POINT('',(11.25,0.,0.));
#640=VERTEX_POINT('',#630);
#650=EDGE_CURVE('',#300,#640,#620,.T.);
#660=ORIENTED_EDGE('',*,*,#650,.F.);
#670=CARTESIAN_POINT('',(0.,0.,0.));
#680=DIRECTION('',(0.,1.,0.));
#690=DIRECTION('',(1.,0.,0.));
#700=AXIS2_PLACEMENT_3D('',#670,#680,#690);
#710=CIRCLE('',#700,11.25);
#720=EDGE_CURVE('',#540,#640,#710,.T.);
#730=ORIENTED_EDGE('',*,*,#720,.T.);
#740=EDGE_LOOP('',(#730,#660,#570,#560));
#750=FACE_OUTER_BOUND('',#740,.T.);
#760=ADVANCED_FACE('',(#750),#470,.T.);
#770=CARTESIAN_POINT('',(5.625,0.,0.));
#780=DIRECTION('',(-0.,-1.,-0.));
#790=DIRECTION('',(-1.,0.,0.));
#800=AXIS2_PLACEMENT_3D('',#770,#780,#790);
#810=PLANE('',#800);
#820=EDGE_CURVE('',#640,#540,#710,.T.);
#830=ORIENTED_EDGE('',*,*,#820,.F.);
#840=ORIENTED_EDGE('',*,*,#720,.F.);
#850=EDGE_LOOP('',(#840,#830));
#860=FACE_OUTER_BOUND('',#850,.T.);
#870=ADVANCED_FACE('',(#860),#810,.T.);
#880=CARTESIAN_POINT('',(0.,-14.,0.));
#890=DIRECTION('',(0.,1.,0.));
#900=DIRECTION('',(1.,0.,0.));
#910=AXIS2_PLACEMENT_3D('',#880,#890,#900);
#920=SPHERICAL_SURFACE('',#910,45.);
#930=CARTESIAN_POINT('',(0.,-14.,0.));
#940=DIRECTION('',(0.,0.,-1.));
#950=DIRECTION('',(1.,-0.,0.));
#960=AXIS2_PLACEMENT_3D('',#930,#940,#950);
#970=CIRCLE('',#960,45.);
#980=CARTESIAN_POINT('',(-7.58729170939293,30.3557550326514,0.));
#990=VERTEX_POINT('',#980);
#1000=CARTESIAN_POINT('',(-8.26636589424463E-15,31.,0.));
#1010=VERTEX_POINT('',#1000);
#1020=EDGE_CURVE('',#990,#1010,#970,.T.);
#1030=ORIENTED_EDGE('',*,*,#1020,.F.);
#1040=CARTESIAN_POINT('',(7.58729170939292,30.3557550326514,0.));
#1050=VERTEX_POINT('',#1040);
#1060=EDGE_CURVE('',#1010,#1050,#970,.T.);
#1070=ORIENTED_EDGE('',*,*,#1060,.F.);
#1080=CARTESIAN_POINT('',(0.,30.3557550326514,0.));
#1090=DIRECTION('',(0.,1.,0.));
#1100=DIRECTION('',(1.,0.,0.));
#1110=AXIS2_PLACEMENT_3D('',#1080,#1090,#1100);
#1120=CIRCLE('',#1110,7.58729170939294);
#1130=EDGE_CURVE('',#990,#1050,#1120,.T.);
#1140=ORIENTED_EDGE('',*,*,#1130,.T.);
#1150=EDGE_LOOP('',(#1140,#1070,#1030));
#1160=FACE_OUTER_BOUND('',#1150,.T.);
#1170=ADVANCED_FACE('',(#1160),#920,.T.);
#1180=CARTESIAN_POINT('',(0.,13.5991364647609,0.));
#1190=DIRECTION('',(0.,1.,0.));
#1200=DIRECTION('',(1.,0.,0.));
#1210=AXIS2_PLACEMENT_3D('',#1180,#1190,#1200);
#1220=DEGENERATE_TOROIDAL_SURFACE('',#1210,4.72098150806672,17.,.T.);
#1230=CARTESIAN_POINT('',(-4.72098150806672,13.5991364647609,0.));
#1240=DIRECTION('',(0.,0.,1.));
#1250=DIRECTION('',(-1.,0.,0.));
#1260=AXIS2_PLACEMENT_3D('',#1230,#1240,#1250);
#1270=CIRCLE('',#1260,17.);
#1280=CARTESIAN_POINT('',(-16.4044882831052,25.9480501593993,0.));
#1290=VERTEX_POINT('',#1280);
#1300=EDGE_CURVE('',#990,#1290,#1270,.T.);
#1310=ORIENTED_EDGE('',*,*,#1300,.T.);
#1320=ORIENTED_EDGE('',*,*,#1130,.F.);
#1330=CARTESIAN_POINT('',(4.72098150806672,13.5991364647609,0.));
#1340=DIRECTION('',(0.,0.,-1.));
#1350=DIRECTION('',(1.,0.,0.));
#1360=AXIS2_PLACEMENT_3D('',#1330,#1340,#1350);
#1370=CIRCLE('',#1360,17.);
#1380=CARTESIAN_POINT('',(16.4044882831052,25.9480501593993,0.));
#1390=VERTEX_POINT('',#1380);
#1400=EDGE_CURVE('',#1050,#1390,#1370,.T.);
#1410=ORIENTED_EDGE('',*,*,#1400,.F.);
#1420=CARTESIAN_POINT('',(0.,25.9480501593993,0.));
#1430=DIRECTION('',(0.,1.,0.));
#1440=DIRECTION('',(1.,0.,0.));
#1450=AXIS2_PLACEMENT_3D('',#1420,#1430,#1440);
#1460=CIRCLE('',#1450,16.4044882831052);
#1470=EDGE_CURVE('',#1290,#1390,#1460,.T.);
#1480=ORIENTED_EDGE('',*,*,#1470,.T.);
#1490=EDGE_LOOP('',(#1480,#1410,#1320,#1310));
#1500=FACE_OUTER_BOUND('',#1490,.T.);
#1510=ADVANCED_FACE('',(#1500),#1220,.T.);
#1520=CARTESIAN_POINT('',(0.,20.5,0.));
#1530=DIRECTION('',(0.,1.,0.));
#1540=DIRECTION('',(1.,0.,0.));
#1550=AXIS2_PLACEMENT_3D('',#1520,#1530,#1540);
#1560=TOROIDAL_SURFACE('',#1550,11.25,7.5);
#1570=CARTESIAN_POINT('',(-11.25,20.5,0.));
#1580=DIRECTION('',(0.,0.,1.));
#1590=DIRECTION('',(1.,0.,0.));
#1600=AXIS2_PLACEMENT_3D('',#1570,#1580,#1590);
#1610=CIRCLE('',#1600,7.5);
#1620=CARTESIAN_POINT('',(-18.75,20.5,0.));
#1630=VERTEX_POINT('',#1620);
#1640=EDGE_CURVE('',#1290,#1630,#1610,.T.);
#1650=ORIENTED_EDGE('',*,*,#1640,.T.);
#1660=ORIENTED_EDGE('',*,*,#1470,.F.);
#1670=CARTESIAN_POINT('',(11.25,20.5,0.));
#1680=DIRECTION('',(0.,0.,-1.));
#1690=DIRECTION('',(-1.,0.,0.));
#1700=AXIS2_PLACEMENT_3D('',#1670,#1680,#1690);
#1710=CIRCLE('',#1700,7.5);
#1720=CARTESIAN_POINT('',(18.75,20.5,0.));
#1730=VERTEX_POINT('',#1720);
#1740=EDGE_CURVE('',#1390,#1730,#1710,.T.);
#1750=ORIENTED_EDGE('',*,*,#1740,.F.);
#1760=CARTESIAN_POINT('',(0.,20.5,0.));
#1770=DIRECTION('',(0.,1.,0.));
#1780=DIRECTION('',(1.,0.,0.));
#1790=AXIS2_PLACEMENT_3D('',#1760,#1770,#1780);
#1800=CIRCLE('',#1790,18.75);
#1810=EDGE_CURVE('',#1630,#1730,#1800,.T.);
#1820=ORIENTED_EDGE('',*,*,#1810,.T.);
#1830=EDGE_LOOP('',(#1820,#1750,#1660,#1650));
#1840=FACE_OUTER_BOUND('',#1830,.T.);
#1850=ADVANCED_FACE('',(#1840),#1560,.T.);
#1860=CARTESIAN_POINT('',(0.,20.5,0.));
#1870=DIRECTION('',(0.,1.,0.));
#1880=DIRECTION('',(1.,0.,0.));
#1890=AXIS2_PLACEMENT_3D('',#1860,#1870,#1880);
#1900=TOROIDAL_SURFACE('',#1890,12.75,6.);
#1910=CARTESIAN_POINT('',(-12.75,20.5,0.));
#1920=DIRECTION('',(0.,0.,1.));
#1930=DIRECTION('',(1.,0.,0.));
#1940=AXIS2_PLACEMENT_3D('',#1910,#1920,#1930);
#1950=CIRCLE('',#1940,6.);
#1960=CARTESIAN_POINT('',(-16.2059466265854,15.5952642360477,0.));
#1970=VERTEX_POINT('',#1960);
#1980=EDGE_CURVE('',#1630,#1970,#1950,.T.);
#1990=ORIENTED_EDGE('',*,*,#1980,.T.);
#2000=ORIENTED_EDGE('',*,*,#1810,.F.);
#2010=CARTESIAN_POINT('',(12.75,20.5,0.));
#2020=DIRECTION('',(0.,0.,-1.));
#2030=DIRECTION('',(-1.,0.,0.));
#2040=AXIS2_PLACEMENT_3D('',#2010,#2020,#2030);
#2050=CIRCLE('',#2040,6.);
#2060=CARTESIAN_POINT('',(16.2059466265854,15.5952642360477,0.));
#2070=VERTEX_POINT('',#2060);
#2080=EDGE_CURVE('',#1730,#2070,#2050,.T.);
#2090=ORIENTED_EDGE('',*,*,#2080,.F.);
#2100=CARTESIAN_POINT('',(0.,15.5952642360477,0.));
#2110=DIRECTION('',(0.,1.,0.));
#2120=DIRECTION('',(1.,0.,0.));
#2130=AXIS2_PLACEMENT_3D('',#2100,#2110,#2120);
#2140=CIRCLE('',#2130,16.2059466265854);
#2150=EDGE_CURVE('',#1970,#2070,#2140,.T.);
#2160=ORIENTED_EDGE('',*,*,#2150,.T.);
#2170=EDGE_LOOP('',(#2160,#2090,#2000,#1990));
#2180=FACE_OUTER_BOUND('',#2170,.T.);
#2190=ADVANCED_FACE('',(#2180),#1900,.T.);
#2200=CARTESIAN_POINT('',(0.,15.5952642360477,0.));
#2210=DIRECTION('',(0.,1.,0.));
#2220=DIRECTION('',(1.,0.,0.));
#2230=AXIS2_PLACEMENT_3D('',#2200,#2210,#2220);
#2240=CONICAL_SURFACE('',#2230,16.2059466265854,0.956980270416297);
#2250=CARTESIAN_POINT('',(-16.2059466265854,15.5952642360477,
-1.98465606634007E-15));
#2260=DIRECTION('',(-0.817455960658721,0.5759911044309,
-1.00109482566463E-16));
#2270=VECTOR('',#2260,19.8248559023612);
#2280=LINE('',#2250,#2270);
#2290=CARTESIAN_POINT('',(-12.1960355822764,12.7698238426349,0.));
#2300=VERTEX_POINT('',#2290);
#2310=EDGE_CURVE('',#2300,#1970,#2280,.T.);
#2320=ORIENTED_EDGE('',*,*,#2310,.F.);
#2330=ORIENTED_EDGE('',*,*,#2150,.F.);
#2340=CARTESIAN_POINT('',(16.2059466265854,15.5952642360477,0.));
#2350=DIRECTION('',(0.817455960658721,0.5759911044309,0.));
#2360=VECTOR('',#2350,19.8248559023612);
#2370=LINE('',#2340,#2360);
#2380=CARTESIAN_POINT('',(12.1960355822764,12.7698238426349,0.));
#2390=VERTEX_POINT('',#2380);
#2400=EDGE_CURVE('',#2390,#2070,#2370,.T.);
#2410=ORIENTED_EDGE('',*,*,#2400,.T.);
#2420=CARTESIAN_POINT('',(0.,12.7698238426349,0.));
#2430=DIRECTION('',(0.,1.,0.));
#2440=DIRECTION('',(1.,0.,0.));
#2450=AXIS2_PLACEMENT_3D('',#2420,#2430,#2440);
#2460=CIRCLE('',#2450,12.1960355822764);
#2470=EDGE_CURVE('',#2300,#2390,#2460,.T.);
#2480=ORIENTED_EDGE('',*,*,#2470,.T.);
#2490=EDGE_LOOP('',(#2480,#2410,#2330,#2320));
#2500=FACE_OUTER_BOUND('',#2490,.T.);
#2510=ADVANCED_FACE('',(#2500),#2240,.T.);
#2520=CARTESIAN_POINT('',(0.,9.5,0.));
#2530=DIRECTION('',(0.,1.,0.));
#2540=DIRECTION('',(1.,0.,0.));
#2550=AXIS2_PLACEMENT_3D('',#2520,#2530,#2540);
#2560=TOROIDAL_SURFACE('',#2550,14.5,4.);
#2570=CARTESIAN_POINT('',(-14.5,9.5,0.));
#2580=DIRECTION('',(0.,0.,1.));
#2590=DIRECTION('',(-1.,0.,0.));
#2600=AXIS2_PLACEMENT_3D('',#2570,#2580,#2590);
#2610=CIRCLE('',#2600,4.);
#2620=EDGE_CURVE('',#110,#2300,#2610,.T.);
#2630=ORIENTED_EDGE('',*,*,#2620,.F.);
#2640=ORIENTED_EDGE('',*,*,#2470,.F.);
#2650=CARTESIAN_POINT('',(14.5,9.5,0.));
#2660=DIRECTION('',(0.,0.,-1.));
#2670=DIRECTION('',(1.,0.,0.));
#2680=AXIS2_PLACEMENT_3D('',#2650,#2660,#2670);
#2690=CIRCLE('',#2680,4.);
#2700=EDGE_CURVE('',#220,#2390,#2690,.T.);
#2710=ORIENTED_EDGE('',*,*,#2700,.T.);
#2720=ORIENTED_EDGE('',*,*,#230,.T.);
#2730=EDGE_LOOP('',(#2720,#2710,#2640,#2630));
#2740=FACE_OUTER_BOUND('',#2730,.T.);
#2750=ADVANCED_FACE('',(#2740),#2560,.F.);
#2760=CARTESIAN_POINT('',(0.,15.5952642360477,0.));
#2770=DIRECTION('',(0.,1.,0.));
#2780=DIRECTION('',(1.,0.,0.));
#2790=AXIS2_PLACEMENT_3D('',#2760,#2770,#2780);
#2800=CONICAL_SURFACE('',#2790,16.2059466265854,0.956980270416297);
#2810=EDGE_CURVE('',#2070,#1970,#2140,.T.);
#2820=ORIENTED_EDGE('',*,*,#2810,.F.);
#2830=ORIENTED_EDGE('',*,*,#2310,.T.);
#2840=EDGE_CURVE('',#2390,#2300,#2460,.T.);
#2850=ORIENTED_EDGE('',*,*,#2840,.T.);
#2860=ORIENTED_EDGE('',*,*,#2400,.F.);
#2870=EDGE_LOOP('',(#2860,#2850,#2830,#2820));
#2880=FACE_OUTER_BOUND('',#2870,.T.);
#2890=ADVANCED_FACE('',(#2880),#2800,.T.);
#2900=CARTESIAN_POINT('',(0.,3.84217439480007,0.));
#2910=DIRECTION('',(0.,-1.,0.));
#2920=DIRECTION('',(-1.,0.,0.));
#2930=AXIS2_PLACEMENT_3D('',#2900,#2910,#2920);
#2940=CONICAL_SURFACE('',#2930,13.3591628419691,0.566722420649627);
#2950=EDGE_CURVE('',#300,#130,#370,.T.);
#2960=ORIENTED_EDGE('',*,*,#2950,.T.);
#2970=ORIENTED_EDGE('',*,*,#310,.T.);
#2980=EDGE_CURVE('',#220,#110,#200,.T.);
#2990=ORIENTED_EDGE('',*,*,#2980,.F.);
#3000=ORIENTED_EDGE('',*,*,#140,.F.);
#3010=EDGE_LOOP('',(#3000,#2990,#2970,#2960));
#3020=FACE_OUTER_BOUND('',#3010,.T.);
#3030=ADVANCED_FACE('',(#3020),#2940,.T.);
#3040=CARTESIAN_POINT('',(0.,20.5,0.));
#3050=DIRECTION('',(0.,1.,0.));
#3060=DIRECTION('',(1.,0.,0.));
#3070=AXIS2_PLACEMENT_3D('',#3040,#3050,#3060);
#3080=TOROIDAL_SURFACE('',#3070,12.75,6.);
#3090=EDGE_CURVE('',#1730,#1630,#1800,.T.);
#3100=ORIENTED_EDGE('',*,*,#3090,.F.);
#3110=ORIENTED_EDGE('',*,*,#1980,.F.);
#3120=ORIENTED_EDGE('',*,*,#2810,.T.);
#3130=ORIENTED_EDGE('',*,*,#2080,.T.);
#3140=EDGE_LOOP('',(#3130,#3120,#3110,#3100));
#3150=FACE_OUTER_BOUND('',#3140,.T.);
#3160=ADVANCED_FACE('',(#3150),#3080,.T.);
#3170=CARTESIAN_POINT('',(0.,-14.,0.));
#3180=DIRECTION('',(0.,1.,0.));
#3190=DIRECTION('',(1.,0.,0.));
#3200=AXIS2_PLACEMENT_3D('',#3170,#3180,#3190);
#3210=SPHERICAL_SURFACE('',#3200,45.);
#3220=EDGE_CURVE('',#1050,#990,#1120,.T.);
#3230=ORIENTED_EDGE('',*,*,#3220,.T.);
#3240=ORIENTED_EDGE('',*,*,#1060,.T.);
#3250=ORIENTED_EDGE('',*,*,#1020,.T.);
#3260=EDGE_LOOP('',(#3250,#3240,#3230));
#3270=FACE_OUTER_BOUND('',#3260,.T.);
#3280=ADVANCED_FACE('',(#3270),#3210,.T.);
#3290=CARTESIAN_POINT('',(0.,2.5,0.));
#3300=DIRECTION('',(0.,1.,0.));
#3310=DIRECTION('',(1.,0.,0.));
#3320=AXIS2_PLACEMENT_3D('',#3290,#3300,#3310);
#3330=TOROIDAL_SURFACE('',#3320,11.25,2.5);
#3340=ORIENTED_EDGE('',*,*,#2950,.F.);
#3350=ORIENTED_EDGE('',*,*,#550,.F.);
#3360=ORIENTED_EDGE('',*,*,#820,.T.);
#3370=ORIENTED_EDGE('',*,*,#650,.T.);
#3380=EDGE_LOOP('',(#3370,#3360,#3350,#3340));
#3390=FACE_OUTER_BOUND('',#3380,.T.);
#3400=ADVANCED_FACE('',(#3390),#3330,.T.);
#3410=CARTESIAN_POINT('',(0.,9.5,0.));
#3420=DIRECTION('',(0.,1.,0.));
#3430=DIRECTION('',(1.,0.,0.));
#3440=AXIS2_PLACEMENT_3D('',#3410,#3420,#3430);
#3450=TOROIDAL_SURFACE('',#3440,14.5,4.);
#3460=ORIENTED_EDGE('',*,*,#2840,.F.);
#3470=ORIENTED_EDGE('',*,*,#2620,.T.);
#3480=ORIENTED_EDGE('',*,*,#2980,.T.);
#3490=ORIENTED_EDGE('',*,*,#2700,.F.);
#3500=EDGE_LOOP('',(#3490,#3480,#3470,#3460));
#3510=FACE_OUTER_BOUND('',#3500,.T.);
#3520=ADVANCED_FACE('',(#3510),#3450,.F.);
#3530=CARTESIAN_POINT('',(0.,20.5,0.));
#3540=DIRECTION('',(0.,1.,0.));
#3550=DIRECTION('',(1.,0.,0.));
#3560=AXIS2_PLACEMENT_3D('',#3530,#3540,#3550);
#3570=TOROIDAL_SURFACE('',#3560,11.25,7.5);
#3580=EDGE_CURVE('',#1390,#1290,#1460,.T.);
#3590=ORIENTED_EDGE('',*,*,#3580,.F.);
#3600=ORIENTED_EDGE('',*,*,#1640,.F.);
#3610=ORIENTED_EDGE('',*,*,#3090,.T.);
#3620=ORIENTED_EDGE('',*,*,#1740,.T.);
#3630=EDGE_LOOP('',(#3620,#3610,#3600,#3590));
#3640=FACE_OUTER_BOUND('',#3630,.T.);
#3650=ADVANCED_FACE('',(#3640),#3570,.T.);
#3660=CARTESIAN_POINT('',(0.,13.5991364647609,0.));
#3670=DIRECTION('',(0.,1.,0.));
#3680=DIRECTION('',(1.,0.,0.));
#3690=AXIS2_PLACEMENT_3D('',#3660,#3670,#3680);
#3700=DEGENERATE_TOROIDAL_SURFACE('',#3690,4.72098150806672,17.,.T.);
#3710=ORIENTED_EDGE('',*,*,#3220,.F.);
#3720=ORIENTED_EDGE('',*,*,#1300,.F.);
#3730=ORIENTED_EDGE('',*,*,#3580,.T.);
#3740=ORIENTED_EDGE('',*,*,#1400,.T.);
#3750=EDGE_LOOP('',(#3740,#3730,#3720,#3710));
#3760=FACE_OUTER_BOUND('',#3750,.T.);
#3770=ADVANCED_FACE('',(#3760),#3700,.T.);
#3780=CLOSED_SHELL('',(#420,#760,#870,#1170,#1510,#1850,#2190,#2510,
#2750,#2890,#3030,#3160,#3280,#3400,#3520,#3650,#3770));
#3790=MANIFOLD_SOLID_BREP('',#3780);
#3800=CARTESIAN_POINT('',(0.,0.,0.));
#3810=DIRECTION('',(0.,0.,1.));
#3820=DIRECTION('',(1.,0.,0.));
#3830=AXIS2_PLACEMENT_3D('',#3800,#3810,#3820);
#3840=APPLICATION_CONTEXT(' ');
#3850=APPLICATION_PROTOCOL_DEFINITION(' ','automotive_design',1998,#3840
);
#3860=PRODUCT_CONTEXT('',#3840,'mechanical');
#3870=PRODUCT_DEFINITION_CONTEXT('part definition',#3840,'design');
#3880=PRODUCT('SP7-39','SP7-39','',(#3860));
#3890=PRODUCT_RELATED_PRODUCT_CATEGORY('part',' ',(#3880));
#3900=PRODUCT_DEFINITION_FORMATION_WITH_SPECIFIED_SOURCE('','',#3880,
.BOUGHT.);
#3910=PRODUCT_DEFINITION('',' ',#3900,#3870);
#3920=PRODUCT_DEFINITION_SHAPE('','',#3910);
#3930=DIMENSIONAL_EXPONENTS(1.,0.,0.,0.,0.,0.,0.);
#3940=DIMENSIONAL_EXPONENTS(0.,0.,0.,0.,0.,0.,0.);
#3950=DIMENSIONAL_EXPONENTS(0.,0.,0.,0.,0.,0.,0.);
#3960=(LENGTH_UNIT() NAMED_UNIT(*) SI_UNIT(.MILLI.,.METRE.));
#3970=(NAMED_UNIT(*) PLANE_ANGLE_UNIT() SI_UNIT($,.RADIAN.));
#3980=(NAMED_UNIT(*) SI_UNIT($,.STERADIAN.) SOLID_ANGLE_UNIT());
#3990=(GEOMETRIC_REPRESENTATION_CONTEXT(3) 
GLOBAL_UNCERTAINTY_ASSIGNED_CONTEXT((#4000)) 
GLOBAL_UNIT_ASSIGNED_CONTEXT((#3960,#3970,#3980)) REPRESENTATION_CONTEXT
('',''));
#4000=UNCERTAINTY_MEASURE_WITH_UNIT(LENGTH_MEASURE(1.E-6),#3960,
'distance_accuracy_value','maximum gap value');
#4010=ADVANCED_BREP_SHAPE_REPRESENTATION('',(#3830,#3790),#3990);
#4020=SHAPE_DEFINITION_REPRESENTATION(#3920,#4010);
#4030=COLOUR_RGB('',0.600000023841858,0.600000023841858,
0.600000023841858);
#4040=FILL_AREA_STYLE_COLOUR('',#4030);
#4050=FILL_AREA_STYLE('',(#4040));
#4060=SURFACE_STYLE_FILL_AREA(#4050);
#4070=SURFACE_SIDE_STYLE('',(#4060));
#4080=SURFACE_STYLE_USAGE(.BOTH.,#4070);
#4090=PRESENTATION_STYLE_ASSIGNMENT((#4080));
#4100=STYLED_ITEM('',(#4090),#3790);
#4110=DRAUGHTING_MODEL('',(#4100),#3990);
ENDSEC;
END-ISO-10303-21;
