ISO-10303-21;
HEADER;
FILE_DESCRIPTION(('Creo Elements/Direct Modeling STEP Export'),'2;1');
FILE_NAME('2508-24.stp','2022-12-13T10:25:27',(''),(''),
'Creo Elements/Direct Modeling STEP processor for AP214 (Solid Model)',
'Creo Elements/Direct Modeling 20.0  12-Nov-2016 (C) Parametric Technolo
gy GmbH','');
FILE_SCHEMA(('AUTOMOTIVE_DESIGN { 1 0 10303 214 1 1 1 1 }'));
ENDSEC;
DATA;
#10=CARTESIAN_POINT('',(0.,0.,0.));
#20=DIRECTION('',(0.,0.,1.));
#30=DIRECTION('',(1.,0.,0.));
#40=AXIS2_PLACEMENT_3D('',#10,#20,#30);
#50=PLANE('',#40);
#60=CARTESIAN_POINT('',(0.,0.,0.));
#70=DIRECTION('',(0.,0.,-1.));
#80=DIRECTION('',(-1.,0.,0.));
#90=AXIS2_PLACEMENT_3D('',#60,#70,#80);
#100=CIRCLE('',#90,2.5);
#110=CARTESIAN_POINT('',(2.5,3.06161699786838E-16,0.));
#120=VERTEX_POINT('',#110);
#130=CARTESIAN_POINT('',(-2.5,0.,-2.22044604925031E-16));
#140=VERTEX_POINT('',#130);
#150=EDGE_CURVE('',#120,#140,#100,.T.);
#160=ORIENTED_EDGE('',*,*,#150,.F.);
#170=EDGE_CURVE('',#140,#120,#100,.T.);
#180=ORIENTED_EDGE('',*,*,#170,.F.);
#190=EDGE_LOOP('',(#180,#160));
#200=FACE_BOUND('',#190,.T.);
#210=CARTESIAN_POINT('',(0.,0.,0.));
#220=DIRECTION('',(0.,0.,-1.));
#230=DIRECTION('',(0.,-1.,0.));
#240=AXIS2_PLACEMENT_3D('',#210,#220,#230);
#250=CIRCLE('',#240,5.);
#260=CARTESIAN_POINT('',(0.,-5.,0.));
#270=VERTEX_POINT('',#260);
#280=CARTESIAN_POINT('',(-6.12323399573677E-16,5.,0.));
#290=VERTEX_POINT('',#280);
#300=EDGE_CURVE('',#270,#290,#250,.T.);
#310=ORIENTED_EDGE('',*,*,#300,.T.);
#320=EDGE_CURVE('',#290,#270,#250,.T.);
#330=ORIENTED_EDGE('',*,*,#320,.T.);
#340=EDGE_LOOP('',(#330,#310));
#350=FACE_OUTER_BOUND('',#340,.T.);
#360=ADVANCED_FACE('',(#200,#350),#50,.F.);
#370=CARTESIAN_POINT('',(0.,0.,25.));
#380=DIRECTION('',(0.,0.,1.));
#390=DIRECTION('',(1.,0.,0.));
#400=AXIS2_PLACEMENT_3D('',#370,#380,#390);
#410=PLANE('',#400);
#420=CARTESIAN_POINT('',(0.,0.,25.));
#430=DIRECTION('',(0.,0.,1.));
#440=DIRECTION('',(1.,0.,0.));
#450=AXIS2_PLACEMENT_3D('',#420,#430,#440);
#460=CIRCLE('',#450,11.65);
#470=CARTESIAN_POINT('',(11.65,1.42671352100667E-15,25.));
#480=VERTEX_POINT('',#470);
#490=CARTESIAN_POINT('',(-11.65,0.,25.));
#500=VERTEX_POINT('',#490);
#510=EDGE_CURVE('',#480,#500,#460,.T.);
#520=ORIENTED_EDGE('',*,*,#510,.T.);
#530=EDGE_CURVE('',#500,#480,#460,.T.);
#540=ORIENTED_EDGE('',*,*,#530,.T.);
#550=EDGE_LOOP('',(#540,#520));
#560=FACE_OUTER_BOUND('',#550,.T.);
#570=ADVANCED_FACE('',(#560),#410,.T.);
#580=CARTESIAN_POINT('',(0.,0.,3.5));
#590=DIRECTION('',(0.,0.,-1.));
#600=DIRECTION('',(1.,0.,0.));
#610=AXIS2_PLACEMENT_3D('',#580,#590,#600);
#620=CYLINDRICAL_SURFACE('',#610,1.65);
#630=CARTESIAN_POINT('',(-1.65,-2.02066721859313E-16,3.5));
#640=DIRECTION('',(0.,0.,-1.));
#650=VECTOR('',#640,1.);
#660=LINE('',#630,#650);
#670=CARTESIAN_POINT('',(-1.65,-2.02066721859313E-16,7.));
#680=VERTEX_POINT('',#670);
#690=CARTESIAN_POINT('',(-1.65,-2.02066721859313E-16,0.85));
#700=VERTEX_POINT('',#690);
#710=EDGE_CURVE('',#680,#700,#660,.T.);
#720=ORIENTED_EDGE('',*,*,#710,.T.);
#730=CARTESIAN_POINT('',(0.,0.,7.));
#740=DIRECTION('',(0.,0.,1.));
#750=DIRECTION('',(1.,0.,0.));
#760=AXIS2_PLACEMENT_3D('',#730,#740,#750);
#770=CIRCLE('',#760,1.65);
#780=CARTESIAN_POINT('',(1.65,0.,7.));
#790=VERTEX_POINT('',#780);
#800=EDGE_CURVE('',#790,#680,#770,.T.);
#810=ORIENTED_EDGE('',*,*,#800,.T.);
#820=CARTESIAN_POINT('',(1.65,0.,3.5));
#830=DIRECTION('',(0.,0.,-1.));
#840=VECTOR('',#830,1.);
#850=LINE('',#820,#840);
#860=CARTESIAN_POINT('',(1.65,0.,0.850000000000001));
#870=VERTEX_POINT('',#860);
#880=EDGE_CURVE('',#790,#870,#850,.T.);
#890=ORIENTED_EDGE('',*,*,#880,.F.);
#900=CARTESIAN_POINT('',(0.,0.,0.85));
#910=DIRECTION('',(0.,0.,-1.));
#920=DIRECTION('',(-1.,0.,0.));
#930=AXIS2_PLACEMENT_3D('',#900,#910,#920);
#940=CIRCLE('',#930,1.65);
#950=EDGE_CURVE('',#700,#870,#940,.T.);
#960=ORIENTED_EDGE('',*,*,#950,.T.);
#970=EDGE_LOOP('',(#960,#890,#810,#720));
#980=FACE_OUTER_BOUND('',#970,.T.);
#990=ADVANCED_FACE('M4-0.7_1231519',(#980),#620,.F.);
#1000=COLOUR_RGB('',1.,0.,0.);
#1010=FILL_AREA_STYLE_COLOUR('',#1000);
#1020=FILL_AREA_STYLE('',(#1010));
#1030=SURFACE_STYLE_FILL_AREA(#1020);
#1040=SURFACE_SIDE_STYLE('',(#1030));
#1050=SURFACE_STYLE_USAGE(.BOTH.,#1040);
#1060=PRESENTATION_STYLE_ASSIGNMENT((#1050));
#1070=CARTESIAN_POINT('',(1.6425,0.,7.));
#1080=DIRECTION('',(0.,0.,-1.));
#1090=DIRECTION('',(1.,0.,0.));
#1100=AXIS2_PLACEMENT_3D('',#1070,#1080,#1090);
#1110=PLANE('',#1100);
#1120=CARTESIAN_POINT('',(0.,0.,7.));
#1130=DIRECTION('',(0.,0.,1.));
#1140=DIRECTION('',(1.,0.,0.));
#1150=AXIS2_PLACEMENT_3D('',#1120,#1130,#1140);
#1160=CIRCLE('',#1150,1.635);
#1170=CARTESIAN_POINT('',(1.635,0.,7.));
#1180=VERTEX_POINT('',#1170);
#1190=CARTESIAN_POINT('',(-1.635,-2.00229751660592E-16,7.));
#1200=VERTEX_POINT('',#1190);
#1210=EDGE_CURVE('',#1180,#1200,#1160,.T.);
#1220=ORIENTED_EDGE('',*,*,#1210,.T.);
#1230=EDGE_CURVE('',#1200,#1180,#1160,.T.);
#1240=ORIENTED_EDGE('',*,*,#1230,.T.);
#1250=EDGE_LOOP('',(#1240,#1220));
#1260=FACE_BOUND('',#1250,.T.);
#1270=ORIENTED_EDGE('',*,*,#800,.F.);
#1280=EDGE_CURVE('',#680,#790,#770,.T.);
#1290=ORIENTED_EDGE('',*,*,#1280,.F.);
#1300=EDGE_LOOP('',(#1290,#1270));
#1310=FACE_OUTER_BOUND('',#1300,.T.);
#1320=ADVANCED_FACE('',(#1260,#1310),#1110,.T.);
#1330=CARTESIAN_POINT('',(0.,0.,11.5));
#1340=DIRECTION('',(0.,0.,-1.));
#1350=DIRECTION('',(1.,0.,0.));
#1360=AXIS2_PLACEMENT_3D('',#1330,#1340,#1350);
#1370=CYLINDRICAL_SURFACE('',#1360,1.635);
#1380=CARTESIAN_POINT('',(1.635,0.,11.5));
#1390=DIRECTION('',(0.,0.,-1.));
#1400=VECTOR('',#1390,1.);
#1410=LINE('',#1380,#1400);
#1420=CARTESIAN_POINT('',(1.635,0.,10.));
#1430=VERTEX_POINT('',#1420);
#1440=EDGE_CURVE('',#1430,#1180,#1410,.T.);
#1450=ORIENTED_EDGE('',*,*,#1440,.T.);
#1460=CARTESIAN_POINT('',(0.,0.,10.));
#1470=DIRECTION('',(0.,0.,1.));
#1480=DIRECTION('',(1.,0.,0.));
#1490=AXIS2_PLACEMENT_3D('',#1460,#1470,#1480);
#1500=CIRCLE('',#1490,1.635);
#1510=CARTESIAN_POINT('',(-1.635,-2.00229751660592E-16,10.));
#1520=VERTEX_POINT('',#1510);
#1530=EDGE_CURVE('',#1520,#1430,#1500,.T.);
#1540=ORIENTED_EDGE('',*,*,#1530,.T.);
#1550=CARTESIAN_POINT('',(-1.635,-2.00229751660592E-16,11.5));
#1560=DIRECTION('',(0.,0.,-1.));
#1570=VECTOR('',#1560,1.);
#1580=LINE('',#1550,#1570);
#1590=EDGE_CURVE('',#1520,#1200,#1580,.T.);
#1600=ORIENTED_EDGE('',*,*,#1590,.F.);
#1610=ORIENTED_EDGE('',*,*,#1230,.F.);
#1620=EDGE_LOOP('',(#1610,#1600,#1540,#1450));
#1630=FACE_OUTER_BOUND('',#1620,.T.);
#1640=ADVANCED_FACE('',(#1630),#1370,.F.);
#1650=CARTESIAN_POINT('',(0.,0.,10.));
#1660=DIRECTION('',(0.,0.,-1.));
#1670=DIRECTION('',(1.,0.,0.));
#1680=AXIS2_PLACEMENT_3D('',#1650,#1660,#1670);
#1690=CONICAL_SURFACE('',#1680,1.635,1.02974425867666);
#1700=CARTESIAN_POINT('',(1.635,0.,10.));
#1710=DIRECTION('',(0.857167300702113,0.,-0.515038074910054));
#1720=VECTOR('',#1710,1.90744560444706);
#1730=LINE('',#1700,#1720);
#1740=CARTESIAN_POINT('',(-2.22044604925031E-16,-2.46519032881566E-32,
10.9824071121101));
#1750=VERTEX_POINT('',#1740);
#1760=EDGE_CURVE('',#1750,#1430,#1730,.T.);
#1770=ORIENTED_EDGE('',*,*,#1760,.T.);
#1780=CARTESIAN_POINT('',(-1.635,-2.00229751660592E-16,10.));
#1790=DIRECTION('',(-0.857167300702113,-1.04972719113862E-16,
-0.515038074910054));
#1800=VECTOR('',#1790,1.90744560444706);
#1810=LINE('',#1780,#1800);
#1820=EDGE_CURVE('',#1750,#1520,#1810,.T.);
#1830=ORIENTED_EDGE('',*,*,#1820,.F.);
#1840=ORIENTED_EDGE('',*,*,#1530,.F.);
#1850=EDGE_LOOP('',(#1840,#1830,#1770));
#1860=FACE_OUTER_BOUND('',#1850,.T.);
#1870=ADVANCED_FACE('',(#1860),#1690,.F.);
#1880=CARTESIAN_POINT('',(0.,0.,0.85));
#1890=DIRECTION('',(0.,0.,-1.));
#1900=DIRECTION('',(-1.,0.,0.));
#1910=AXIS2_PLACEMENT_3D('',#1880,#1890,#1900);
#1920=CONICAL_SURFACE('',#1910,1.65,0.785398163397448);
#1930=CARTESIAN_POINT('',(1.65,2.02066721859313E-16,0.85));
#1940=DIRECTION('',(0.707106781186548,8.65956056235493E-17,
-0.707106781186548));
#1950=VECTOR('',#1940,2.33345237791561);
#1960=LINE('',#1930,#1950);
#1970=EDGE_CURVE('',#870,#120,#1960,.T.);
#1980=ORIENTED_EDGE('',*,*,#1970,.F.);
#1990=ORIENTED_EDGE('',*,*,#170,.T.);
#2000=CARTESIAN_POINT('',(-1.65,0.,0.85));
#2010=DIRECTION('',(-0.707106781186548,0.,-0.707106781186548));
#2020=VECTOR('',#2010,2.33345237791561);
#2030=LINE('',#2000,#2020);
#2040=EDGE_CURVE('',#700,#140,#2030,.T.);
#2050=ORIENTED_EDGE('',*,*,#2040,.T.);
#2060=ORIENTED_EDGE('',*,*,#950,.F.);
#2070=EDGE_LOOP('',(#2060,#2050,#1990,#1980));
#2080=FACE_OUTER_BOUND('',#2070,.T.);
#2090=ADVANCED_FACE('',(#2080),#1920,.F.);
#2100=CARTESIAN_POINT('',(0.,0.,25.));
#2110=DIRECTION('',(0.,0.,-1.));
#2120=DIRECTION('',(-1.,0.,0.));
#2130=AXIS2_PLACEMENT_3D('',#2100,#2110,#2120);
#2140=CONICAL_SURFACE('',#2130,11.65,0.785398163397448);
#2150=CARTESIAN_POINT('',(11.65,1.42671352100667E-15,25.));
#2160=DIRECTION('',(0.707106781186548,8.65956056235493E-17,
-0.707106781186547));
#2170=VECTOR('',#2160,16.4755880016466);
#2180=LINE('',#2150,#2170);
#2190=CARTESIAN_POINT('',(12.15,1.48794586096403E-15,24.5));
#2200=VERTEX_POINT('',#2190);
#2210=EDGE_CURVE('',#480,#2200,#2180,.T.);
#2220=ORIENTED_EDGE('',*,*,#2210,.F.);
#2230=CARTESIAN_POINT('',(0.,0.,24.5));
#2240=DIRECTION('',(0.,0.,1.));
#2250=DIRECTION('',(1.,0.,0.));
#2260=AXIS2_PLACEMENT_3D('',#2230,#2240,#2250);
#2270=CIRCLE('',#2260,12.15);
#2280=CARTESIAN_POINT('',(-12.15,0.,24.5));
#2290=VERTEX_POINT('',#2280);
#2300=EDGE_CURVE('',#2290,#2200,#2270,.T.);
#2310=ORIENTED_EDGE('',*,*,#2300,.T.);
#2320=CARTESIAN_POINT('',(-11.65,0.,25.));
#2330=DIRECTION('',(-0.707106781186548,0.,-0.707106781186547));
#2340=VECTOR('',#2330,16.4755880016466);
#2350=LINE('',#2320,#2340);
#2360=EDGE_CURVE('',#500,#2290,#2350,.T.);
#2370=ORIENTED_EDGE('',*,*,#2360,.T.);
#2380=ORIENTED_EDGE('',*,*,#530,.F.);
#2390=EDGE_LOOP('',(#2380,#2370,#2310,#2220));
#2400=FACE_OUTER_BOUND('',#2390,.T.);
#2410=ADVANCED_FACE('',(#2400),#2140,.T.);
#2420=CARTESIAN_POINT('',(0.,0.,11.5));
#2430=DIRECTION('',(0.,0.,-1.));
#2440=DIRECTION('',(1.,0.,0.));
#2450=AXIS2_PLACEMENT_3D('',#2420,#2430,#2440);
#2460=CYLINDRICAL_SURFACE('',#2450,1.635);
#2470=ORIENTED_EDGE('',*,*,#1210,.F.);
#2480=ORIENTED_EDGE('',*,*,#1590,.T.);
#2490=EDGE_CURVE('',#1430,#1520,#1500,.T.);
#2500=ORIENTED_EDGE('',*,*,#2490,.T.);
#2510=ORIENTED_EDGE('',*,*,#1440,.F.);
#2520=EDGE_LOOP('',(#2510,#2500,#2480,#2470));
#2530=FACE_OUTER_BOUND('',#2520,.T.);
#2540=ADVANCED_FACE('',(#2530),#2460,.F.);
#2550=CARTESIAN_POINT('',(0.,0.,0.85));
#2560=DIRECTION('',(0.,0.,-1.));
#2570=DIRECTION('',(-1.,0.,0.));
#2580=AXIS2_PLACEMENT_3D('',#2550,#2560,#2570);
#2590=CONICAL_SURFACE('',#2580,1.65,0.785398163397448);
#2600=ORIENTED_EDGE('',*,*,#150,.T.);
#2610=ORIENTED_EDGE('',*,*,#1970,.T.);
#2620=EDGE_CURVE('',#870,#700,#940,.T.);
#2630=ORIENTED_EDGE('',*,*,#2620,.F.);
#2640=ORIENTED_EDGE('',*,*,#2040,.F.);
#2650=EDGE_LOOP('',(#2640,#2630,#2610,#2600));
#2660=FACE_OUTER_BOUND('',#2650,.T.);
#2670=ADVANCED_FACE('',(#2660),#2590,.F.);
#2680=CARTESIAN_POINT('',(0.,0.,3.5));
#2690=DIRECTION('',(0.,0.,-1.));
#2700=DIRECTION('',(1.,0.,0.));
#2710=AXIS2_PLACEMENT_3D('',#2680,#2690,#2700);
#2720=CYLINDRICAL_SURFACE('',#2710,1.65);
#2730=ORIENTED_EDGE('',*,*,#710,.F.);
#2740=ORIENTED_EDGE('',*,*,#2620,.T.);
#2750=ORIENTED_EDGE('',*,*,#880,.T.);
#2760=ORIENTED_EDGE('',*,*,#1280,.T.);
#2770=EDGE_LOOP('',(#2760,#2750,#2740,#2730));
#2780=FACE_OUTER_BOUND('',#2770,.T.);
#2790=ADVANCED_FACE('',(#2780),#2720,.F.);
#2800=COLOUR_RGB('',1.,0.,0.);
#2810=FILL_AREA_STYLE_COLOUR('',#2800);
#2820=FILL_AREA_STYLE('',(#2810));
#2830=SURFACE_STYLE_FILL_AREA(#2820);
#2840=SURFACE_SIDE_STYLE('',(#2830));
#2850=SURFACE_STYLE_USAGE(.BOTH.,#2840);
#2860=PRESENTATION_STYLE_ASSIGNMENT((#2850));
#2870=CARTESIAN_POINT('',(0.,0.,10.));
#2880=DIRECTION('',(0.,0.,-1.));
#2890=DIRECTION('',(1.,0.,0.));
#2900=AXIS2_PLACEMENT_3D('',#2870,#2880,#2890);
#2910=CONICAL_SURFACE('',#2900,1.635,1.02974425867666);
#2920=ORIENTED_EDGE('',*,*,#1760,.F.);
#2930=ORIENTED_EDGE('',*,*,#2490,.F.);
#2940=ORIENTED_EDGE('',*,*,#1820,.T.);
#2950=EDGE_LOOP('',(#2940,#2930,#2920));
#2960=FACE_OUTER_BOUND('',#2950,.T.);
#2970=ADVANCED_FACE('',(#2960),#2910,.F.);
#2980=CARTESIAN_POINT('',(0.,0.,25.));
#2990=DIRECTION('',(0.,0.,-1.));
#3000=DIRECTION('',(-1.,0.,0.));
#3010=AXIS2_PLACEMENT_3D('',#2980,#2990,#3000);
#3020=CONICAL_SURFACE('',#3010,11.65,0.785398163397448);
#3030=EDGE_CURVE('',#2200,#2290,#2270,.T.);
#3040=ORIENTED_EDGE('',*,*,#3030,.T.);
#3050=ORIENTED_EDGE('',*,*,#2210,.T.);
#3060=ORIENTED_EDGE('',*,*,#510,.F.);
#3070=ORIENTED_EDGE('',*,*,#2360,.F.);
#3080=EDGE_LOOP('',(#3070,#3060,#3050,#3040));
#3090=FACE_OUTER_BOUND('',#3080,.T.);
#3100=ADVANCED_FACE('',(#3090),#3020,.T.);
#3110=CARTESIAN_POINT('',(0.,9.3,11.));
#3120=DIRECTION('',(-0.,-0.,-1.));
#3130=DIRECTION('',(0.,-1.,0.));
#3140=AXIS2_PLACEMENT_3D('',#3110,#3120,#3130);
#3150=PLANE('',#3140);
#3160=CARTESIAN_POINT('',(0.,0.,11.));
#3170=DIRECTION('',(0.,0.,-1.));
#3180=DIRECTION('',(0.,-1.,0.));
#3190=AXIS2_PLACEMENT_3D('',#3160,#3170,#3180);
#3200=CIRCLE('',#3190,5.);
#3210=CARTESIAN_POINT('',(0.,-5.,11.));
#3220=VERTEX_POINT('',#3210);
#3230=CARTESIAN_POINT('',(-6.12323399573677E-16,5.,11.));
#3240=VERTEX_POINT('',#3230);
#3250=EDGE_CURVE('',#3220,#3240,#3200,.T.);
#3260=ORIENTED_EDGE('',*,*,#3250,.F.);
#3270=EDGE_CURVE('',#3240,#3220,#3200,.T.);
#3280=ORIENTED_EDGE('',*,*,#3270,.F.);
#3290=EDGE_LOOP('',(#3280,#3260));
#3300=FACE_BOUND('',#3290,.T.);
#3310=CARTESIAN_POINT('',(0.,0.,11.));
#3320=DIRECTION('',(0.,0.,1.));
#3330=DIRECTION('',(1.,0.,0.));
#3340=AXIS2_PLACEMENT_3D('',#3310,#3320,#3330);
#3350=CIRCLE('',#3340,11.65);
#3360=CARTESIAN_POINT('',(11.65,0.,11.));
#3370=VERTEX_POINT('',#3360);
#3380=CARTESIAN_POINT('',(-11.65,1.42671352100667E-15,11.));
#3390=VERTEX_POINT('',#3380);
#3400=EDGE_CURVE('',#3370,#3390,#3350,.T.);
#3410=ORIENTED_EDGE('',*,*,#3400,.F.);
#3420=EDGE_CURVE('',#3390,#3370,#3350,.T.);
#3430=ORIENTED_EDGE('',*,*,#3420,.F.);
#3440=EDGE_LOOP('',(#3430,#3410));
#3450=FACE_OUTER_BOUND('',#3440,.T.);
#3460=ADVANCED_FACE('',(#3300,#3450),#3150,.T.);
#3470=CARTESIAN_POINT('',(0.,0.,0.));
#3480=DIRECTION('',(0.,0.,1.));
#3490=DIRECTION('',(1.,0.,0.));
#3500=AXIS2_PLACEMENT_3D('',#3470,#3480,#3490);
#3510=CYLINDRICAL_SURFACE('',#3500,12.15);
#3520=CARTESIAN_POINT('',(-12.15,1.48794586096403E-15,0.));
#3530=DIRECTION('',(0.,0.,1.));
#3540=VECTOR('',#3530,1.);
#3550=LINE('',#3520,#3540);
#3560=CARTESIAN_POINT('',(-12.15,1.48794586096403E-15,11.5));
#3570=VERTEX_POINT('',#3560);
#3580=EDGE_CURVE('',#3570,#2290,#3550,.T.);
#3590=ORIENTED_EDGE('',*,*,#3580,.F.);
#3600=ORIENTED_EDGE('',*,*,#2300,.F.);
#3610=CARTESIAN_POINT('',(12.15,0.,0.));
#3620=DIRECTION('',(0.,0.,1.));
#3630=VECTOR('',#3620,1.);
#3640=LINE('',#3610,#3630);
#3650=CARTESIAN_POINT('',(12.15,0.,11.5));
#3660=VERTEX_POINT('',#3650);
#3670=EDGE_CURVE('',#3660,#2200,#3640,.T.);
#3680=ORIENTED_EDGE('',*,*,#3670,.T.);
#3690=CARTESIAN_POINT('',(0.,0.,11.5));
#3700=DIRECTION('',(0.,0.,1.));
#3710=DIRECTION('',(1.,0.,0.));
#3720=AXIS2_PLACEMENT_3D('',#3690,#3700,#3710);
#3730=CIRCLE('',#3720,12.15);
#3740=EDGE_CURVE('',#3570,#3660,#3730,.T.);
#3750=ORIENTED_EDGE('',*,*,#3740,.T.);
#3760=EDGE_LOOP('',(#3750,#3680,#3600,#3590));
#3770=FACE_OUTER_BOUND('',#3760,.T.);
#3780=ADVANCED_FACE('',(#3770),#3510,.T.);
#3790=CARTESIAN_POINT('',(0.,0.,64.));
#3800=DIRECTION('',(0.,0.,-1.));
#3810=DIRECTION('',(0.,-1.,0.));
#3820=AXIS2_PLACEMENT_3D('',#3790,#3800,#3810);
#3830=CYLINDRICAL_SURFACE('',#3820,5.);
#3840=CARTESIAN_POINT('',(0.,-5.,64.));
#3850=DIRECTION('',(0.,0.,-1.));
#3860=VECTOR('',#3850,1.);
#3870=LINE('',#3840,#3860);
#3880=EDGE_CURVE('',#3220,#270,#3870,.T.);
#3890=ORIENTED_EDGE('',*,*,#3880,.T.);
#3900=ORIENTED_EDGE('',*,*,#3270,.T.);
#3910=CARTESIAN_POINT('',(-6.12323399573677E-16,5.,64.));
#3920=DIRECTION('',(0.,0.,-1.));
#3930=VECTOR('',#3920,1.);
#3940=LINE('',#3910,#3930);
#3950=EDGE_CURVE('',#3240,#290,#3940,.T.);
#3960=ORIENTED_EDGE('',*,*,#3950,.F.);
#3970=ORIENTED_EDGE('',*,*,#320,.F.);
#3980=EDGE_LOOP('',(#3970,#3960,#3900,#3890));
#3990=FACE_OUTER_BOUND('',#3980,.T.);
#4000=ADVANCED_FACE('',(#3990),#3830,.T.);
#4010=CARTESIAN_POINT('',(0.,0.,11.5));
#4020=DIRECTION('',(0.,0.,1.));
#4030=DIRECTION('',(1.,0.,0.));
#4040=AXIS2_PLACEMENT_3D('',#4010,#4020,#4030);
#4050=CONICAL_SURFACE('',#4040,12.15,0.785398163397448);
#4060=CARTESIAN_POINT('',(12.15,0.,11.5));
#4070=DIRECTION('',(0.707106781186548,0.,0.707106781186548));
#4080=VECTOR('',#4070,17.1826947828331);
#4090=LINE('',#4060,#4080);
#4100=EDGE_CURVE('',#3370,#3660,#4090,.T.);
#4110=ORIENTED_EDGE('',*,*,#4100,.T.);
#4120=ORIENTED_EDGE('',*,*,#3420,.T.);
#4130=CARTESIAN_POINT('',(-12.15,1.48794586096403E-15,11.5));
#4140=DIRECTION('',(-0.707106781186548,8.65956056235493E-17,
0.707106781186548));
#4150=VECTOR('',#4140,17.1826947828331);
#4160=LINE('',#4130,#4150);
#4170=EDGE_CURVE('',#3390,#3570,#4160,.T.);
#4180=ORIENTED_EDGE('',*,*,#4170,.F.);
#4190=ORIENTED_EDGE('',*,*,#3740,.F.);
#4200=EDGE_LOOP('',(#4190,#4180,#4120,#4110));
#4210=FACE_OUTER_BOUND('',#4200,.T.);
#4220=ADVANCED_FACE('',(#4210),#4050,.T.);
#4230=CARTESIAN_POINT('',(0.,0.,11.5));
#4240=DIRECTION('',(0.,0.,1.));
#4250=DIRECTION('',(1.,0.,0.));
#4260=AXIS2_PLACEMENT_3D('',#4230,#4240,#4250);
#4270=CONICAL_SURFACE('',#4260,12.15,0.785398163397448);
#4280=EDGE_CURVE('',#3660,#3570,#3730,.T.);
#4290=ORIENTED_EDGE('',*,*,#4280,.F.);
#4300=ORIENTED_EDGE('',*,*,#4170,.T.);
#4310=ORIENTED_EDGE('',*,*,#3400,.T.);
#4320=ORIENTED_EDGE('',*,*,#4100,.F.);
#4330=EDGE_LOOP('',(#4320,#4310,#4300,#4290));
#4340=FACE_OUTER_BOUND('',#4330,.T.);
#4350=ADVANCED_FACE('',(#4340),#4270,.T.);
#4360=CARTESIAN_POINT('',(0.,0.,64.));
#4370=DIRECTION('',(0.,0.,-1.));
#4380=DIRECTION('',(0.,-1.,0.));
#4390=AXIS2_PLACEMENT_3D('',#4360,#4370,#4380);
#4400=CYLINDRICAL_SURFACE('',#4390,5.);
#4410=ORIENTED_EDGE('',*,*,#300,.F.);
#4420=ORIENTED_EDGE('',*,*,#3950,.T.);
#4430=ORIENTED_EDGE('',*,*,#3250,.T.);
#4440=ORIENTED_EDGE('',*,*,#3880,.F.);
#4450=EDGE_LOOP('',(#4440,#4430,#4420,#4410));
#4460=FACE_OUTER_BOUND('',#4450,.T.);
#4470=ADVANCED_FACE('',(#4460),#4400,.T.);
#4480=CARTESIAN_POINT('',(0.,0.,0.));
#4490=DIRECTION('',(0.,0.,1.));
#4500=DIRECTION('',(1.,0.,0.));
#4510=AXIS2_PLACEMENT_3D('',#4480,#4490,#4500);
#4520=CYLINDRICAL_SURFACE('',#4510,12.15);
#4530=ORIENTED_EDGE('',*,*,#3030,.F.);
#4540=ORIENTED_EDGE('',*,*,#3580,.T.);
#4550=ORIENTED_EDGE('',*,*,#4280,.T.);
#4560=ORIENTED_EDGE('',*,*,#3670,.F.);
#4570=EDGE_LOOP('',(#4560,#4550,#4540,#4530));
#4580=FACE_OUTER_BOUND('',#4570,.T.);
#4590=ADVANCED_FACE('',(#4580),#4520,.T.);
#4600=CLOSED_SHELL('',(#3460,#3780,#4000,#4220,#4350,#4470,#4590,#570,
#990,#1320,#1640,#1870,#2090,#2410,#2540,#2670,#2790,#2970,#3100,#360));
#4610=MANIFOLD_SOLID_BREP('',#4600);
#4620=CARTESIAN_POINT('',(0.,0.,0.));
#4630=DIRECTION('',(0.,0.,1.));
#4640=DIRECTION('',(1.,0.,0.));
#4650=AXIS2_PLACEMENT_3D('',#4620,#4630,#4640);
#4660=APPLICATION_CONTEXT(' ');
#4670=APPLICATION_PROTOCOL_DEFINITION(' ','automotive_design',1998,#4660
);
#4680=PRODUCT_CONTEXT('',#4660,'mechanical');
#4690=PRODUCT_DEFINITION_CONTEXT('part definition',#4660,'design');
#4700=PRODUCT('AL-11905','AL-11905','',(#4680));
#4710=PRODUCT_RELATED_PRODUCT_CATEGORY('part',' ',(#4700));
#4720=PRODUCT_DEFINITION_FORMATION_WITH_SPECIFIED_SOURCE('','',#4700,
.BOUGHT.);
#4730=PRODUCT_DEFINITION('',' ',#4720,#4690);
#4740=PRODUCT_DEFINITION_SHAPE('','',#4730);
#4750=DIMENSIONAL_EXPONENTS(1.,0.,0.,0.,0.,0.,0.);
#4760=DIMENSIONAL_EXPONENTS(0.,0.,0.,0.,0.,0.,0.);
#4770=DIMENSIONAL_EXPONENTS(0.,0.,0.,0.,0.,0.,0.);
#4780=(LENGTH_UNIT() NAMED_UNIT(*) SI_UNIT(.MILLI.,.METRE.));
#4790=(NAMED_UNIT(*) PLANE_ANGLE_UNIT() SI_UNIT($,.RADIAN.));
#4800=(NAMED_UNIT(*) SI_UNIT($,.STERADIAN.) SOLID_ANGLE_UNIT());
#4810=(GEOMETRIC_REPRESENTATION_CONTEXT(3) 
GLOBAL_UNCERTAINTY_ASSIGNED_CONTEXT((#4820)) 
GLOBAL_UNIT_ASSIGNED_CONTEXT((#4780,#4790,#4800)) REPRESENTATION_CONTEXT
('',''));
#4820=UNCERTAINTY_MEASURE_WITH_UNIT(LENGTH_MEASURE(1.E-6),#4780,
'distance_accuracy_value','maximum gap value');
#4830=ADVANCED_BREP_SHAPE_REPRESENTATION('',(#4650,#4610),#4810);
#4840=SHAPE_DEFINITION_REPRESENTATION(#4740,#4830);
#4850=COLOUR_RGB('',0.600000023841858,0.600000023841858,
0.600000023841858);
#4860=FILL_AREA_STYLE_COLOUR('',#4850);
#4870=FILL_AREA_STYLE('',(#4860));
#4880=SURFACE_STYLE_FILL_AREA(#4870);
#4890=SURFACE_SIDE_STYLE('',(#4880));
#4900=SURFACE_STYLE_USAGE(.BOTH.,#4890);
#4910=PRESENTATION_STYLE_ASSIGNMENT((#4900));
#4920=STYLED_ITEM('',(#4910),#4610);
#4930=OVER_RIDING_STYLED_ITEM('',(#1060),#990,#4920);
#4940=OVER_RIDING_STYLED_ITEM('',(#2860),#2790,#4920);
#4950=DRAUGHTING_MODEL('',(#4920,#4930,#4940),#4810);
#4960=CARTESIAN_POINT('',(35.,0.,0.));
#4970=DIRECTION('',(0.,0.,1.));
#4980=DIRECTION('',(1.,0.,0.));
#4990=AXIS2_PLACEMENT_3D('',#4960,#4970,#4980);
#5000=ITEM_DEFINED_TRANSFORMATION('AL-11905','',#4650,#4990);
#5010=APPLICATION_CONTEXT(' ');
#5020=APPLICATION_PROTOCOL_DEFINITION(' ','automotive_design',1998,#5010
);
#5030=PRODUCT_CONTEXT('',#5010,'mechanical');
#5040=PRODUCT_DEFINITION_CONTEXT('part definition',#5010,'design');
#5050=PRODUCT('AL-11905','AL-11905','',(#5030));
#5060=PRODUCT_RELATED_PRODUCT_CATEGORY('part',' ',(#5050));
#5070=PRODUCT_DEFINITION_FORMATION_WITH_SPECIFIED_SOURCE('','',#5050,
.BOUGHT.);
#5080=PRODUCT_DEFINITION('',' ',#5070,#5040);
#5090=PRODUCT_DEFINITION_SHAPE('','',#5080);
#5100=DIMENSIONAL_EXPONENTS(1.,0.,0.,0.,0.,0.,0.);
#5110=DIMENSIONAL_EXPONENTS(0.,0.,0.,0.,0.,0.,0.);
#5120=DIMENSIONAL_EXPONENTS(0.,0.,0.,0.,0.,0.,0.);
#5130=(LENGTH_UNIT() NAMED_UNIT(*) SI_UNIT(.MILLI.,.METRE.));
#5140=(NAMED_UNIT(*) PLANE_ANGLE_UNIT() SI_UNIT($,.RADIAN.));
#5150=(NAMED_UNIT(*) SI_UNIT($,.STERADIAN.) SOLID_ANGLE_UNIT());
#5160=(GEOMETRIC_REPRESENTATION_CONTEXT(3) 
GLOBAL_UNCERTAINTY_ASSIGNED_CONTEXT((#5170)) 
GLOBAL_UNIT_ASSIGNED_CONTEXT((#5130,#5140,#5150)) REPRESENTATION_CONTEXT
('',''));
#5170=UNCERTAINTY_MEASURE_WITH_UNIT(LENGTH_MEASURE(1.E-6),#5130,
'distance_accuracy_value','maximum gap value');
#5180=SHAPE_REPRESENTATION('',(#4650,#4990),#5160);
#5190=SHAPE_DEFINITION_REPRESENTATION(#5090,#5180);
#5200=(REPRESENTATION_RELATIONSHIP('','',#4830,#5180) 
REPRESENTATION_RELATIONSHIP_WITH_TRANSFORMATION(#5000) 
SHAPE_REPRESENTATION_RELATIONSHIP());
#5210=NEXT_ASSEMBLY_USAGE_OCCURRENCE('1','','AL-11905',#5080,#4730,'');
#5220=PRODUCT_DEFINITION_SHAPE('','',#5210);
#5230=CONTEXT_DEPENDENT_SHAPE_REPRESENTATION(#5200,#5220);
ENDSEC;
END-ISO-10303-21;
