ISO-10303-21;
HEADER;
FILE_DESCRIPTION(('Creo Elements/Direct Modeling STEP Export'),'2;1');
FILE_NAME('2508-16.stp','2022-12-13T 9:59:32',(''),(''),
'Creo Elements/Direct Modeling STEP processor for AP214 (Solid Model)',
'Creo Elements/Direct Modeling 20.0  12-Nov-2016 (C) Parametric Technolo
gy GmbH','');
FILE_SCHEMA(('AUTOMOTIVE_DESIGN { 1 0 10303 214 1 1 1 1 }'));
ENDSEC;
DATA;
#10=CARTESIAN_POINT('',(0.,0.,25.));
#20=DIRECTION('',(0.,0.,1.));
#30=DIRECTION('',(-1.,0.,0.));
#40=AXIS2_PLACEMENT_3D('',#10,#20,#30);
#50=PLANE('',#40);
#60=CARTESIAN_POINT('',(0.,0.,25.));
#70=DIRECTION('',(0.,0.,-1.));
#80=DIRECTION('',(-1.,0.,-0.));
#90=AXIS2_PLACEMENT_3D('',#60,#70,#80);
#100=CIRCLE('',#90,7.65);
#110=CARTESIAN_POINT('',(1.40528220202159E-15,-7.65,25.));
#120=VERTEX_POINT('',#110);
#130=CARTESIAN_POINT('',(-7.65,0.,25.));
#140=VERTEX_POINT('',#130);
#150=EDGE_CURVE('',#120,#140,#100,.T.);
#160=ORIENTED_EDGE('',*,*,#150,.F.);
#170=CARTESIAN_POINT('',(7.65,9.36854801347725E-16,25.));
#180=VERTEX_POINT('',#170);
#190=EDGE_CURVE('',#140,#180,#100,.T.);
#200=ORIENTED_EDGE('',*,*,#190,.F.);
#210=EDGE_CURVE('',#180,#120,#100,.T.);
#220=ORIENTED_EDGE('',*,*,#210,.F.);
#230=EDGE_LOOP('',(#220,#200,#160));
#240=FACE_OUTER_BOUND('',#230,.T.);
#250=ADVANCED_FACE('',(#240),#50,.T.);
#260=CARTESIAN_POINT('',(0.,0.,64.));
#270=DIRECTION('',(0.,0.,-1.));
#280=DIRECTION('',(0.,-1.,0.));
#290=AXIS2_PLACEMENT_3D('',#260,#270,#280);
#300=CYLINDRICAL_SURFACE('',#290,5.);
#310=CARTESIAN_POINT('',(0.,-5.,64.));
#320=DIRECTION('',(0.,0.,-1.));
#330=VECTOR('',#320,1.);
#340=LINE('',#310,#330);
#350=CARTESIAN_POINT('',(0.,-5.,11.));
#360=VERTEX_POINT('',#350);
#370=CARTESIAN_POINT('',(0.,-5.,0.));
#380=VERTEX_POINT('',#370);
#390=EDGE_CURVE('',#360,#380,#340,.T.);
#400=ORIENTED_EDGE('',*,*,#390,.F.);
#410=CARTESIAN_POINT('',(0.,0.,0.));
#420=DIRECTION('',(0.,0.,-1.));
#430=DIRECTION('',(0.,-1.,0.));
#440=AXIS2_PLACEMENT_3D('',#410,#420,#430);
#450=CIRCLE('',#440,5.);
#460=CARTESIAN_POINT('',(-6.12323399573677E-16,5.,0.));
#470=VERTEX_POINT('',#460);
#480=EDGE_CURVE('',#380,#470,#450,.T.);
#490=ORIENTED_EDGE('',*,*,#480,.F.);
#500=CARTESIAN_POINT('',(-6.12323399573677E-16,5.,64.));
#510=DIRECTION('',(0.,0.,-1.));
#520=VECTOR('',#510,1.);
#530=LINE('',#500,#520);
#540=CARTESIAN_POINT('',(-6.12323399573677E-16,5.,11.));
#550=VERTEX_POINT('',#540);
#560=EDGE_CURVE('',#550,#470,#530,.T.);
#570=ORIENTED_EDGE('',*,*,#560,.T.);
#580=CARTESIAN_POINT('',(0.,0.,11.));
#590=DIRECTION('',(0.,0.,-1.));
#600=DIRECTION('',(0.,1.,0.));
#610=AXIS2_PLACEMENT_3D('',#580,#590,#600);
#620=CIRCLE('',#610,5.);
#630=EDGE_CURVE('',#360,#550,#620,.T.);
#640=ORIENTED_EDGE('',*,*,#630,.T.);
#650=EDGE_LOOP('',(#640,#570,#490,#400));
#660=FACE_OUTER_BOUND('',#650,.T.);
#670=ADVANCED_FACE('',(#660),#300,.T.);
#680=CARTESIAN_POINT('',(0.,0.,0.));
#690=DIRECTION('',(0.,0.,1.));
#700=DIRECTION('',(-1.,0.,0.));
#710=AXIS2_PLACEMENT_3D('',#680,#690,#700);
#720=CYLINDRICAL_SURFACE('',#710,8.15);
#730=CARTESIAN_POINT('',(0.,0.,11.5));
#740=DIRECTION('',(0.,0.,-1.));
#750=DIRECTION('',(-1.,0.,-0.));
#760=AXIS2_PLACEMENT_3D('',#730,#740,#750);
#770=CIRCLE('',#760,8.15);
#780=CARTESIAN_POINT('',(3.12028348962546E-15,-8.15,11.5));
#790=VERTEX_POINT('',#780);
#800=CARTESIAN_POINT('',(-8.15,0.,11.5));
#810=VERTEX_POINT('',#800);
#820=EDGE_CURVE('',#790,#810,#770,.T.);
#830=ORIENTED_EDGE('',*,*,#820,.F.);
#840=CARTESIAN_POINT('',(-8.15,0.,0.));
#850=DIRECTION('',(0.,0.,1.));
#860=VECTOR('',#850,1.);
#870=LINE('',#840,#860);
#880=CARTESIAN_POINT('',(-8.15,0.,24.5));
#890=VERTEX_POINT('',#880);
#900=EDGE_CURVE('',#810,#890,#870,.T.);
#910=ORIENTED_EDGE('',*,*,#900,.F.);
#920=CARTESIAN_POINT('',(0.,0.,24.5));
#930=DIRECTION('',(0.,0.,-1.));
#940=DIRECTION('',(-1.,0.,-0.));
#950=AXIS2_PLACEMENT_3D('',#920,#930,#940);
#960=CIRCLE('',#950,8.15);
#970=CARTESIAN_POINT('',(3.12028348962546E-15,-8.15,24.5));
#980=VERTEX_POINT('',#970);
#990=EDGE_CURVE('',#980,#890,#960,.T.);
#1000=ORIENTED_EDGE('',*,*,#990,.T.);
#1010=CARTESIAN_POINT('',(8.15,-9.98087141305093E-16,24.5));
#1020=VERTEX_POINT('',#1010);
#1030=EDGE_CURVE('',#1020,#980,#960,.T.);
#1040=ORIENTED_EDGE('',*,*,#1030,.T.);
#1050=CARTESIAN_POINT('',(8.15,-9.98087141305093E-16,0.));
#1060=DIRECTION('',(0.,0.,1.));
#1070=VECTOR('',#1060,1.);
#1080=LINE('',#1050,#1070);
#1090=CARTESIAN_POINT('',(8.15,-9.98087141305093E-16,11.5));
#1100=VERTEX_POINT('',#1090);
#1110=EDGE_CURVE('',#1100,#1020,#1080,.T.);
#1120=ORIENTED_EDGE('',*,*,#1110,.T.);
#1130=EDGE_CURVE('',#1100,#790,#770,.T.);
#1140=ORIENTED_EDGE('',*,*,#1130,.F.);
#1150=EDGE_LOOP('',(#1140,#1120,#1040,#1000,#910,#830));
#1160=FACE_OUTER_BOUND('',#1150,.T.);
#1170=ADVANCED_FACE('',(#1160),#720,.T.);
#1180=CARTESIAN_POINT('',(0.,0.,25.));
#1190=DIRECTION('',(0.,0.,-1.));
#1200=DIRECTION('',(-1.,0.,-0.));
#1210=AXIS2_PLACEMENT_3D('',#1180,#1190,#1200);
#1220=CONICAL_SURFACE('',#1210,7.65,0.785398163397448);
#1230=CARTESIAN_POINT('',(7.65,9.36854801347725E-16,25.));
#1240=DIRECTION('',(0.707106781186548,8.65956056235493E-17,
-0.707106781186547));
#1250=VECTOR('',#1240,10.8187337521542);
#1260=LINE('',#1230,#1250);
#1270=EDGE_CURVE('',#180,#1020,#1260,.T.);
#1280=ORIENTED_EDGE('',*,*,#1270,.F.);
#1290=ORIENTED_EDGE('',*,*,#1030,.F.);
#1300=ORIENTED_EDGE('',*,*,#990,.F.);
#1310=CARTESIAN_POINT('',(-7.65,0.,25.));
#1320=DIRECTION('',(-0.707106781186548,0.,-0.707106781186547));
#1330=VECTOR('',#1320,10.8187337521542);
#1340=LINE('',#1310,#1330);
#1350=EDGE_CURVE('',#140,#890,#1340,.T.);
#1360=ORIENTED_EDGE('',*,*,#1350,.T.);
#1370=ORIENTED_EDGE('',*,*,#150,.T.);
#1380=ORIENTED_EDGE('',*,*,#210,.T.);
#1390=EDGE_LOOP('',(#1380,#1370,#1360,#1300,#1290,#1280));
#1400=FACE_OUTER_BOUND('',#1390,.T.);
#1410=ADVANCED_FACE('',(#1400),#1220,.T.);
#1420=CARTESIAN_POINT('',(0.,0.,0.));
#1430=DIRECTION('',(0.,0.,1.));
#1440=DIRECTION('',(-1.,0.,0.));
#1450=AXIS2_PLACEMENT_3D('',#1420,#1430,#1440);
#1460=PLANE('',#1450);
#1470=CARTESIAN_POINT('',(0.,0.,0.));
#1480=DIRECTION('',(0.,0.,-1.));
#1490=DIRECTION('',(1.,0.,0.));
#1500=AXIS2_PLACEMENT_3D('',#1470,#1480,#1490);
#1510=CIRCLE('',#1500,2.5);
#1520=CARTESIAN_POINT('',(-2.5,-3.06161699786838E-16,0.));
#1530=VERTEX_POINT('',#1520);
#1540=CARTESIAN_POINT('',(2.5,0.,-2.22044604925031E-16));
#1550=VERTEX_POINT('',#1540);
#1560=EDGE_CURVE('',#1530,#1550,#1510,.T.);
#1570=ORIENTED_EDGE('',*,*,#1560,.F.);
#1580=EDGE_CURVE('',#1550,#1530,#1510,.T.);
#1590=ORIENTED_EDGE('',*,*,#1580,.F.);
#1600=EDGE_LOOP('',(#1590,#1570));
#1610=FACE_BOUND('',#1600,.T.);
#1620=EDGE_CURVE('',#470,#380,#450,.T.);
#1630=ORIENTED_EDGE('',*,*,#1620,.T.);
#1640=ORIENTED_EDGE('',*,*,#480,.T.);
#1650=EDGE_LOOP('',(#1640,#1630));
#1660=FACE_OUTER_BOUND('',#1650,.T.);
#1670=ADVANCED_FACE('',(#1610,#1660),#1460,.F.);
#1680=CARTESIAN_POINT('',(0.,0.,0.85));
#1690=DIRECTION('',(0.,0.,-1.));
#1700=DIRECTION('',(1.,0.,0.));
#1710=AXIS2_PLACEMENT_3D('',#1680,#1690,#1700);
#1720=CONICAL_SURFACE('',#1710,1.65,0.785398163397448);
#1730=CARTESIAN_POINT('',(-1.65,-2.02066721859313E-16,0.85));
#1740=DIRECTION('',(-0.707106781186548,-8.65956056235493E-17,
-0.707106781186548));
#1750=VECTOR('',#1740,2.33345237791561);
#1760=LINE('',#1730,#1750);
#1770=CARTESIAN_POINT('',(-1.65,-2.02066721859313E-16,0.85));
#1780=VERTEX_POINT('',#1770);
#1790=EDGE_CURVE('',#1780,#1530,#1760,.T.);
#1800=ORIENTED_EDGE('',*,*,#1790,.F.);
#1810=ORIENTED_EDGE('',*,*,#1580,.T.);
#1820=CARTESIAN_POINT('',(1.65,0.,0.85));
#1830=DIRECTION('',(0.707106781186548,0.,-0.707106781186548));
#1840=VECTOR('',#1830,2.33345237791561);
#1850=LINE('',#1820,#1840);
#1860=CARTESIAN_POINT('',(1.65,0.,0.85));
#1870=VERTEX_POINT('',#1860);
#1880=EDGE_CURVE('',#1870,#1550,#1850,.T.);
#1890=ORIENTED_EDGE('',*,*,#1880,.T.);
#1900=CARTESIAN_POINT('',(0.,0.,0.85));
#1910=DIRECTION('',(0.,0.,-1.));
#1920=DIRECTION('',(1.,0.,0.));
#1930=AXIS2_PLACEMENT_3D('',#1900,#1910,#1920);
#1940=CIRCLE('',#1930,1.65);
#1950=EDGE_CURVE('',#1870,#1780,#1940,.T.);
#1960=ORIENTED_EDGE('',*,*,#1950,.F.);
#1970=EDGE_LOOP('',(#1960,#1890,#1810,#1800));
#1980=FACE_OUTER_BOUND('',#1970,.T.);
#1990=ADVANCED_FACE('',(#1980),#1720,.F.);
#2000=CARTESIAN_POINT('',(0.,0.,3.5));
#2010=DIRECTION('',(0.,0.,-1.));
#2020=DIRECTION('',(-1.,0.,0.));
#2030=AXIS2_PLACEMENT_3D('',#2000,#2010,#2020);
#2040=CYLINDRICAL_SURFACE('',#2030,1.65);
#2050=CARTESIAN_POINT('',(1.65,2.02066721859313E-16,3.5));
#2060=DIRECTION('',(0.,0.,-1.));
#2070=VECTOR('',#2060,1.);
#2080=LINE('',#2050,#2070);
#2090=CARTESIAN_POINT('',(1.65,2.02066721859313E-16,7.));
#2100=VERTEX_POINT('',#2090);
#2110=EDGE_CURVE('',#2100,#1870,#2080,.T.);
#2120=ORIENTED_EDGE('',*,*,#2110,.T.);
#2130=CARTESIAN_POINT('',(0.,0.,7.));
#2140=DIRECTION('',(0.,0.,1.));
#2150=DIRECTION('',(-1.,0.,0.));
#2160=AXIS2_PLACEMENT_3D('',#2130,#2140,#2150);
#2170=CIRCLE('',#2160,1.65);
#2180=CARTESIAN_POINT('',(-1.65,0.,7.));
#2190=VERTEX_POINT('',#2180);
#2200=EDGE_CURVE('',#2190,#2100,#2170,.T.);
#2210=ORIENTED_EDGE('',*,*,#2200,.T.);
#2220=CARTESIAN_POINT('',(-1.65,0.,3.5));
#2230=DIRECTION('',(0.,0.,-1.));
#2240=VECTOR('',#2230,1.);
#2250=LINE('',#2220,#2240);
#2260=EDGE_CURVE('',#2190,#1780,#2250,.T.);
#2270=ORIENTED_EDGE('',*,*,#2260,.F.);
#2280=ORIENTED_EDGE('',*,*,#1950,.T.);
#2290=EDGE_LOOP('',(#2280,#2270,#2210,#2120));
#2300=FACE_OUTER_BOUND('',#2290,.T.);
#2310=ADVANCED_FACE('M4-0.7_1231519',(#2300),#2040,.F.);
#2320=COLOUR_RGB('',1.,0.,0.);
#2330=FILL_AREA_STYLE_COLOUR('',#2320);
#2340=FILL_AREA_STYLE('',(#2330));
#2350=SURFACE_STYLE_FILL_AREA(#2340);
#2360=SURFACE_SIDE_STYLE('',(#2350));
#2370=SURFACE_STYLE_USAGE(.BOTH.,#2360);
#2380=PRESENTATION_STYLE_ASSIGNMENT((#2370));
#2390=CARTESIAN_POINT('',(-1.6425,0.,7.));
#2400=DIRECTION('',(0.,0.,-1.));
#2410=DIRECTION('',(-1.,0.,0.));
#2420=AXIS2_PLACEMENT_3D('',#2390,#2400,#2410);
#2430=PLANE('',#2420);
#2440=CARTESIAN_POINT('',(0.,0.,7.));
#2450=DIRECTION('',(0.,0.,1.));
#2460=DIRECTION('',(-1.,0.,0.));
#2470=AXIS2_PLACEMENT_3D('',#2440,#2450,#2460);
#2480=CIRCLE('',#2470,1.635);
#2490=CARTESIAN_POINT('',(-1.635,0.,7.));
#2500=VERTEX_POINT('',#2490);
#2510=CARTESIAN_POINT('',(1.635,2.00229751660592E-16,7.));
#2520=VERTEX_POINT('',#2510);
#2530=EDGE_CURVE('',#2500,#2520,#2480,.T.);
#2540=ORIENTED_EDGE('',*,*,#2530,.T.);
#2550=EDGE_CURVE('',#2520,#2500,#2480,.T.);
#2560=ORIENTED_EDGE('',*,*,#2550,.T.);
#2570=EDGE_LOOP('',(#2560,#2540));
#2580=FACE_BOUND('',#2570,.T.);
#2590=ORIENTED_EDGE('',*,*,#2200,.F.);
#2600=EDGE_CURVE('',#2100,#2190,#2170,.T.);
#2610=ORIENTED_EDGE('',*,*,#2600,.F.);
#2620=EDGE_LOOP('',(#2610,#2590));
#2630=FACE_OUTER_BOUND('',#2620,.T.);
#2640=ADVANCED_FACE('',(#2580,#2630),#2430,.T.);
#2650=CARTESIAN_POINT('',(0.,0.,11.5));
#2660=DIRECTION('',(0.,0.,-1.));
#2670=DIRECTION('',(-1.,0.,0.));
#2680=AXIS2_PLACEMENT_3D('',#2650,#2660,#2670);
#2690=CYLINDRICAL_SURFACE('',#2680,1.635);
#2700=CARTESIAN_POINT('',(-1.635,0.,11.5));
#2710=DIRECTION('',(0.,0.,-1.));
#2720=VECTOR('',#2710,1.);
#2730=LINE('',#2700,#2720);
#2740=CARTESIAN_POINT('',(-1.635,0.,10.));
#2750=VERTEX_POINT('',#2740);
#2760=EDGE_CURVE('',#2750,#2500,#2730,.T.);
#2770=ORIENTED_EDGE('',*,*,#2760,.T.);
#2780=CARTESIAN_POINT('',(0.,0.,10.));
#2790=DIRECTION('',(0.,0.,1.));
#2800=DIRECTION('',(-1.,0.,0.));
#2810=AXIS2_PLACEMENT_3D('',#2780,#2790,#2800);
#2820=CIRCLE('',#2810,1.635);
#2830=CARTESIAN_POINT('',(1.635,2.00229751660592E-16,10.));
#2840=VERTEX_POINT('',#2830);
#2850=EDGE_CURVE('',#2840,#2750,#2820,.T.);
#2860=ORIENTED_EDGE('',*,*,#2850,.T.);
#2870=CARTESIAN_POINT('',(1.635,2.00229751660592E-16,11.5));
#2880=DIRECTION('',(0.,0.,-1.));
#2890=VECTOR('',#2880,1.);
#2900=LINE('',#2870,#2890);
#2910=EDGE_CURVE('',#2840,#2520,#2900,.T.);
#2920=ORIENTED_EDGE('',*,*,#2910,.F.);
#2930=ORIENTED_EDGE('',*,*,#2550,.F.);
#2940=EDGE_LOOP('',(#2930,#2920,#2860,#2770));
#2950=FACE_OUTER_BOUND('',#2940,.T.);
#2960=ADVANCED_FACE('',(#2950),#2690,.F.);
#2970=CARTESIAN_POINT('',(0.,0.,10.));
#2980=DIRECTION('',(0.,0.,-1.));
#2990=DIRECTION('',(-1.,0.,0.));
#3000=AXIS2_PLACEMENT_3D('',#2970,#2980,#2990);
#3010=CONICAL_SURFACE('',#3000,1.635,1.02974425867666);
#3020=CARTESIAN_POINT('',(-1.635,0.,10.));
#3030=DIRECTION('',(-0.857167300702113,0.,-0.515038074910054));
#3040=VECTOR('',#3030,1.90744560444706);
#3050=LINE('',#3020,#3040);
#3060=CARTESIAN_POINT('',(2.22044604925031E-16,2.46519032881566E-32,
10.9824071121101));
#3070=VERTEX_POINT('',#3060);
#3080=EDGE_CURVE('',#3070,#2750,#3050,.T.);
#3090=ORIENTED_EDGE('',*,*,#3080,.T.);
#3100=CARTESIAN_POINT('',(1.635,2.00229751660592E-16,10.));
#3110=DIRECTION('',(0.857167300702113,1.04972719113862E-16,
-0.515038074910054));
#3120=VECTOR('',#3110,1.90744560444706);
#3130=LINE('',#3100,#3120);
#3140=EDGE_CURVE('',#3070,#2840,#3130,.T.);
#3150=ORIENTED_EDGE('',*,*,#3140,.F.);
#3160=ORIENTED_EDGE('',*,*,#2850,.F.);
#3170=EDGE_LOOP('',(#3160,#3150,#3090));
#3180=FACE_OUTER_BOUND('',#3170,.T.);
#3190=ADVANCED_FACE('',(#3180),#3010,.F.);
#3200=CARTESIAN_POINT('',(0.,-9.3,11.));
#3210=DIRECTION('',(0.,0.,-1.));
#3220=DIRECTION('',(0.,1.,0.));
#3230=AXIS2_PLACEMENT_3D('',#3200,#3210,#3220);
#3240=PLANE('',#3230);
#3250=EDGE_CURVE('',#550,#360,#620,.T.);
#3260=ORIENTED_EDGE('',*,*,#3250,.F.);
#3270=ORIENTED_EDGE('',*,*,#630,.F.);
#3280=EDGE_LOOP('',(#3270,#3260));
#3290=FACE_BOUND('',#3280,.T.);
#3300=CARTESIAN_POINT('',(0.,0.,11.));
#3310=DIRECTION('',(0.,0.,-1.));
#3320=DIRECTION('',(-1.,0.,-0.));
#3330=AXIS2_PLACEMENT_3D('',#3300,#3310,#3320);
#3340=CIRCLE('',#3330,7.65);
#3350=CARTESIAN_POINT('',(-7.65,9.36854801347725E-16,11.));
#3360=VERTEX_POINT('',#3350);
#3370=CARTESIAN_POINT('',(7.65,0.,11.));
#3380=VERTEX_POINT('',#3370);
#3390=EDGE_CURVE('',#3360,#3380,#3340,.T.);
#3400=ORIENTED_EDGE('',*,*,#3390,.T.);
#3410=CARTESIAN_POINT('',(-1.40528220202159E-15,-7.65,11.));
#3420=VERTEX_POINT('',#3410);
#3430=EDGE_CURVE('',#3420,#3360,#3340,.T.);
#3440=ORIENTED_EDGE('',*,*,#3430,.T.);
#3450=EDGE_CURVE('',#3380,#3420,#3340,.T.);
#3460=ORIENTED_EDGE('',*,*,#3450,.T.);
#3470=EDGE_LOOP('',(#3460,#3440,#3400));
#3480=FACE_OUTER_BOUND('',#3470,.T.);
#3490=ADVANCED_FACE('',(#3290,#3480),#3240,.T.);
#3500=CARTESIAN_POINT('',(0.,0.,11.));
#3510=DIRECTION('',(0.,0.,1.));
#3520=DIRECTION('',(1.,0.,-0.));
#3530=AXIS2_PLACEMENT_3D('',#3500,#3510,#3520);
#3540=CONICAL_SURFACE('',#3530,7.65,0.785398163397447);
#3550=ORIENTED_EDGE('',*,*,#3430,.F.);
#3560=CARTESIAN_POINT('',(-7.65,9.36854801347725E-16,11.));
#3570=DIRECTION('',(-0.707106781186546,8.65956056235492E-17,
0.707106781186549));
#3580=VECTOR('',#3570,10.8187337521542);
#3590=LINE('',#3560,#3580);
#3600=EDGE_CURVE('',#3360,#810,#3590,.T.);
#3610=ORIENTED_EDGE('',*,*,#3600,.F.);
#3620=ORIENTED_EDGE('',*,*,#820,.T.);
#3630=ORIENTED_EDGE('',*,*,#1130,.T.);
#3640=CARTESIAN_POINT('',(7.65,0.,11.));
#3650=DIRECTION('',(0.707106781186546,0.,0.707106781186549));
#3660=VECTOR('',#3650,10.8187337521542);
#3670=LINE('',#3640,#3660);
#3680=EDGE_CURVE('',#3380,#1100,#3670,.T.);
#3690=ORIENTED_EDGE('',*,*,#3680,.T.);
#3700=ORIENTED_EDGE('',*,*,#3450,.F.);
#3710=EDGE_LOOP('',(#3700,#3690,#3630,#3620,#3610,#3550));
#3720=FACE_OUTER_BOUND('',#3710,.T.);
#3730=ADVANCED_FACE('',(#3720),#3540,.T.);
#3740=CARTESIAN_POINT('',(0.,0.,25.));
#3750=DIRECTION('',(0.,0.,-1.));
#3760=DIRECTION('',(-1.,0.,-0.));
#3770=AXIS2_PLACEMENT_3D('',#3740,#3750,#3760);
#3780=CONICAL_SURFACE('',#3770,7.65,0.785398163397448);
#3790=EDGE_CURVE('',#890,#1020,#960,.T.);
#3800=ORIENTED_EDGE('',*,*,#3790,.F.);
#3810=ORIENTED_EDGE('',*,*,#1270,.T.);
#3820=ORIENTED_EDGE('',*,*,#190,.T.);
#3830=ORIENTED_EDGE('',*,*,#1350,.F.);
#3840=EDGE_LOOP('',(#3830,#3820,#3810,#3800));
#3850=FACE_OUTER_BOUND('',#3840,.T.);
#3860=ADVANCED_FACE('',(#3850),#3780,.T.);
#3870=CARTESIAN_POINT('',(0.,0.,11.));
#3880=DIRECTION('',(0.,0.,1.));
#3890=DIRECTION('',(1.,0.,-0.));
#3900=AXIS2_PLACEMENT_3D('',#3870,#3880,#3890);
#3910=CONICAL_SURFACE('',#3900,7.65,0.785398163397447);
#3920=EDGE_CURVE('',#810,#1100,#770,.T.);
#3930=ORIENTED_EDGE('',*,*,#3920,.T.);
#3940=ORIENTED_EDGE('',*,*,#3600,.T.);
#3950=ORIENTED_EDGE('',*,*,#3390,.F.);
#3960=ORIENTED_EDGE('',*,*,#3680,.F.);
#3970=EDGE_LOOP('',(#3960,#3950,#3940,#3930));
#3980=FACE_OUTER_BOUND('',#3970,.T.);
#3990=ADVANCED_FACE('',(#3980),#3910,.T.);
#4000=CARTESIAN_POINT('',(0.,0.,10.));
#4010=DIRECTION('',(0.,0.,-1.));
#4020=DIRECTION('',(-1.,0.,0.));
#4030=AXIS2_PLACEMENT_3D('',#4000,#4010,#4020);
#4040=CONICAL_SURFACE('',#4030,1.635,1.02974425867666);
#4050=ORIENTED_EDGE('',*,*,#3080,.F.);
#4060=EDGE_CURVE('',#2750,#2840,#2820,.T.);
#4070=ORIENTED_EDGE('',*,*,#4060,.F.);
#4080=ORIENTED_EDGE('',*,*,#3140,.T.);
#4090=EDGE_LOOP('',(#4080,#4070,#4050));
#4100=FACE_OUTER_BOUND('',#4090,.T.);
#4110=ADVANCED_FACE('',(#4100),#4040,.F.);
#4120=CARTESIAN_POINT('',(0.,0.,0.85));
#4130=DIRECTION('',(0.,0.,-1.));
#4140=DIRECTION('',(1.,0.,0.));
#4150=AXIS2_PLACEMENT_3D('',#4120,#4130,#4140);
#4160=CONICAL_SURFACE('',#4150,1.65,0.785398163397448);
#4170=ORIENTED_EDGE('',*,*,#1560,.T.);
#4180=ORIENTED_EDGE('',*,*,#1790,.T.);
#4190=EDGE_CURVE('',#1780,#1870,#1940,.T.);
#4200=ORIENTED_EDGE('',*,*,#4190,.F.);
#4210=ORIENTED_EDGE('',*,*,#1880,.F.);
#4220=EDGE_LOOP('',(#4210,#4200,#4180,#4170));
#4230=FACE_OUTER_BOUND('',#4220,.T.);
#4240=ADVANCED_FACE('',(#4230),#4160,.F.);
#4250=CARTESIAN_POINT('',(0.,0.,64.));
#4260=DIRECTION('',(0.,0.,-1.));
#4270=DIRECTION('',(0.,-1.,0.));
#4280=AXIS2_PLACEMENT_3D('',#4250,#4260,#4270);
#4290=CYLINDRICAL_SURFACE('',#4280,5.);
#4300=ORIENTED_EDGE('',*,*,#3250,.T.);
#4310=ORIENTED_EDGE('',*,*,#560,.F.);
#4320=ORIENTED_EDGE('',*,*,#1620,.F.);
#4330=ORIENTED_EDGE('',*,*,#390,.T.);
#4340=EDGE_LOOP('',(#4330,#4320,#4310,#4300));
#4350=FACE_OUTER_BOUND('',#4340,.T.);
#4360=ADVANCED_FACE('',(#4350),#4290,.T.);
#4370=CARTESIAN_POINT('',(0.,0.,3.5));
#4380=DIRECTION('',(0.,0.,-1.));
#4390=DIRECTION('',(-1.,0.,0.));
#4400=AXIS2_PLACEMENT_3D('',#4370,#4380,#4390);
#4410=CYLINDRICAL_SURFACE('',#4400,1.65);
#4420=ORIENTED_EDGE('',*,*,#2110,.F.);
#4430=ORIENTED_EDGE('',*,*,#4190,.T.);
#4440=ORIENTED_EDGE('',*,*,#2260,.T.);
#4450=ORIENTED_EDGE('',*,*,#2600,.T.);
#4460=EDGE_LOOP('',(#4450,#4440,#4430,#4420));
#4470=FACE_OUTER_BOUND('',#4460,.T.);
#4480=ADVANCED_FACE('',(#4470),#4410,.F.);
#4490=COLOUR_RGB('',1.,0.,0.);
#4500=FILL_AREA_STYLE_COLOUR('',#4490);
#4510=FILL_AREA_STYLE('',(#4500));
#4520=SURFACE_STYLE_FILL_AREA(#4510);
#4530=SURFACE_SIDE_STYLE('',(#4520));
#4540=SURFACE_STYLE_USAGE(.BOTH.,#4530);
#4550=PRESENTATION_STYLE_ASSIGNMENT((#4540));
#4560=CARTESIAN_POINT('',(0.,0.,11.5));
#4570=DIRECTION('',(0.,0.,-1.));
#4580=DIRECTION('',(-1.,0.,0.));
#4590=AXIS2_PLACEMENT_3D('',#4560,#4570,#4580);
#4600=CYLINDRICAL_SURFACE('',#4590,1.635);
#4610=ORIENTED_EDGE('',*,*,#2530,.F.);
#4620=ORIENTED_EDGE('',*,*,#2910,.T.);
#4630=ORIENTED_EDGE('',*,*,#4060,.T.);
#4640=ORIENTED_EDGE('',*,*,#2760,.F.);
#4650=EDGE_LOOP('',(#4640,#4630,#4620,#4610));
#4660=FACE_OUTER_BOUND('',#4650,.T.);
#4670=ADVANCED_FACE('',(#4660),#4600,.F.);
#4680=CARTESIAN_POINT('',(0.,0.,0.));
#4690=DIRECTION('',(0.,0.,1.));
#4700=DIRECTION('',(-1.,0.,0.));
#4710=AXIS2_PLACEMENT_3D('',#4680,#4690,#4700);
#4720=CYLINDRICAL_SURFACE('',#4710,8.15);
#4730=ORIENTED_EDGE('',*,*,#3920,.F.);
#4740=ORIENTED_EDGE('',*,*,#1110,.F.);
#4750=ORIENTED_EDGE('',*,*,#3790,.T.);
#4760=ORIENTED_EDGE('',*,*,#900,.T.);
#4770=EDGE_LOOP('',(#4760,#4750,#4740,#4730));
#4780=FACE_OUTER_BOUND('',#4770,.T.);
#4790=ADVANCED_FACE('',(#4780),#4720,.T.);
#4800=CLOSED_SHELL('',(#250,#670,#1170,#1410,#1670,#1990,#2310,#2640,
#2960,#3190,#3490,#3730,#3860,#3990,#4110,#4240,#4360,#4480,#4670,#4790)
);
#4810=MANIFOLD_SOLID_BREP('',#4800);
#4820=CARTESIAN_POINT('',(0.,0.,0.));
#4830=DIRECTION('',(0.,0.,1.));
#4840=DIRECTION('',(1.,0.,0.));
#4850=AXIS2_PLACEMENT_3D('',#4820,#4830,#4840);
#4860=APPLICATION_CONTEXT(' ');
#4870=APPLICATION_PROTOCOL_DEFINITION(' ','automotive_design',1998,#4860
);
#4880=PRODUCT_CONTEXT('',#4860,'mechanical');
#4890=PRODUCT_DEFINITION_CONTEXT('part definition',#4860,'design');
#4900=PRODUCT('AL-11904','AL-11904','',(#4880));
#4910=PRODUCT_RELATED_PRODUCT_CATEGORY('part',' ',(#4900));
#4920=PRODUCT_DEFINITION_FORMATION_WITH_SPECIFIED_SOURCE('','',#4900,
.BOUGHT.);
#4930=PRODUCT_DEFINITION('',' ',#4920,#4890);
#4940=PRODUCT_DEFINITION_SHAPE('','',#4930);
#4950=DIMENSIONAL_EXPONENTS(1.,0.,0.,0.,0.,0.,0.);
#4960=DIMENSIONAL_EXPONENTS(0.,0.,0.,0.,0.,0.,0.);
#4970=DIMENSIONAL_EXPONENTS(0.,0.,0.,0.,0.,0.,0.);
#4980=(LENGTH_UNIT() NAMED_UNIT(*) SI_UNIT(.MILLI.,.METRE.));
#4990=(NAMED_UNIT(*) PLANE_ANGLE_UNIT() SI_UNIT($,.RADIAN.));
#5000=(NAMED_UNIT(*) SI_UNIT($,.STERADIAN.) SOLID_ANGLE_UNIT());
#5010=(GEOMETRIC_REPRESENTATION_CONTEXT(3) 
GLOBAL_UNCERTAINTY_ASSIGNED_CONTEXT((#5020)) 
GLOBAL_UNIT_ASSIGNED_CONTEXT((#4980,#4990,#5000)) REPRESENTATION_CONTEXT
('',''));
#5020=UNCERTAINTY_MEASURE_WITH_UNIT(LENGTH_MEASURE(1.E-6),#4980,
'distance_accuracy_value','maximum gap value');
#5030=ADVANCED_BREP_SHAPE_REPRESENTATION('',(#4850,#4810),#5010);
#5040=SHAPE_DEFINITION_REPRESENTATION(#4940,#5030);
#5050=COLOUR_RGB('',0.600000023841858,0.600000023841858,
0.600000023841858);
#5060=FILL_AREA_STYLE_COLOUR('',#5050);
#5070=FILL_AREA_STYLE('',(#5060));
#5080=SURFACE_STYLE_FILL_AREA(#5070);
#5090=SURFACE_SIDE_STYLE('',(#5080));
#5100=SURFACE_STYLE_USAGE(.BOTH.,#5090);
#5110=PRESENTATION_STYLE_ASSIGNMENT((#5100));
#5120=STYLED_ITEM('',(#5110),#4810);
#5130=OVER_RIDING_STYLED_ITEM('',(#2380),#2310,#5120);
#5140=OVER_RIDING_STYLED_ITEM('',(#4550),#4480,#5120);
#5150=DRAUGHTING_MODEL('',(#5120,#5130,#5140),#5010);
#5160=CARTESIAN_POINT('',(-9.,0.,0.));
#5170=DIRECTION('',(0.,0.,1.));
#5180=DIRECTION('',(1.,0.,0.));
#5190=AXIS2_PLACEMENT_3D('',#5160,#5170,#5180);
#5200=ITEM_DEFINED_TRANSFORMATION('AL-11904','',#4850,#5190);
#5210=APPLICATION_CONTEXT(' ');
#5220=APPLICATION_PROTOCOL_DEFINITION(' ','automotive_design',1998,#5210
);
#5230=PRODUCT_CONTEXT('',#5210,'mechanical');
#5240=PRODUCT_DEFINITION_CONTEXT('part definition',#5210,'design');
#5250=PRODUCT('AL-11904','AL-11904','',(#5230));
#5260=PRODUCT_RELATED_PRODUCT_CATEGORY('part',' ',(#5250));
#5270=PRODUCT_DEFINITION_FORMATION_WITH_SPECIFIED_SOURCE('','',#5250,
.BOUGHT.);
#5280=PRODUCT_DEFINITION('',' ',#5270,#5240);
#5290=PRODUCT_DEFINITION_SHAPE('','',#5280);
#5300=DIMENSIONAL_EXPONENTS(1.,0.,0.,0.,0.,0.,0.);
#5310=DIMENSIONAL_EXPONENTS(0.,0.,0.,0.,0.,0.,0.);
#5320=DIMENSIONAL_EXPONENTS(0.,0.,0.,0.,0.,0.,0.);
#5330=(LENGTH_UNIT() NAMED_UNIT(*) SI_UNIT(.MILLI.,.METRE.));
#5340=(NAMED_UNIT(*) PLANE_ANGLE_UNIT() SI_UNIT($,.RADIAN.));
#5350=(NAMED_UNIT(*) SI_UNIT($,.STERADIAN.) SOLID_ANGLE_UNIT());
#5360=(GEOMETRIC_REPRESENTATION_CONTEXT(3) 
GLOBAL_UNCERTAINTY_ASSIGNED_CONTEXT((#5370)) 
GLOBAL_UNIT_ASSIGNED_CONTEXT((#5330,#5340,#5350)) REPRESENTATION_CONTEXT
('',''));
#5370=UNCERTAINTY_MEASURE_WITH_UNIT(LENGTH_MEASURE(1.E-6),#5330,
'distance_accuracy_value','maximum gap value');
#5380=SHAPE_REPRESENTATION('',(#4850,#5190),#5360);
#5390=SHAPE_DEFINITION_REPRESENTATION(#5290,#5380);
#5400=(REPRESENTATION_RELATIONSHIP('','',#5030,#5380) 
REPRESENTATION_RELATIONSHIP_WITH_TRANSFORMATION(#5200) 
SHAPE_REPRESENTATION_RELATIONSHIP());
#5410=NEXT_ASSEMBLY_USAGE_OCCURRENCE('1','','AL-11904',#5280,#4930,'');
#5420=PRODUCT_DEFINITION_SHAPE('','',#5410);
#5430=CONTEXT_DEPENDENT_SHAPE_REPRESENTATION(#5400,#5420);
ENDSEC;
END-ISO-10303-21;
