ISO-10303-21;
HEADER;
FILE_DESCRIPTION(('Creo Elements/Direct Modeling STEP Export'),'2;1');
FILE_NAME('2508-33.stp','2020-10-07T14:25:23',(''),(''),
'Creo Elements/Direct Modeling STEP processor for AP214 (Solid Model)',
'Creo Elements/Direct Modeling 20.0  12-Nov-2016 (C) Parametric Technolo
gy GmbH','');
FILE_SCHEMA(('AUTOMOTIVE_DESIGN { 1 0 10303 214 1 1 1 1 }'));
ENDSEC;
DATA;
#10=CARTESIAN_POINT('',(2.5,0.,0.));
#20=DIRECTION('',(-0.,1.,0.));
#30=DIRECTION('',(1.,0.,0.));
#40=AXIS2_PLACEMENT_3D('',#10,#20,#30);
#50=PLANE('',#40);
#60=CARTESIAN_POINT('',(0.,0.,0.));
#70=DIRECTION('',(0.,-1.,0.));
#80=DIRECTION('',(-1.,0.,0.));
#90=AXIS2_PLACEMENT_3D('',#60,#70,#80);
#100=CIRCLE('',#90,2.5);
#110=CARTESIAN_POINT('',(2.5,0.,-3.06161699786838E-16));
#120=VERTEX_POINT('',#110);
#130=CARTESIAN_POINT('',(-2.5,-2.22044604925031E-16,0.));
#140=VERTEX_POINT('',#130);
#150=EDGE_CURVE('',#120,#140,#100,.T.);
#160=ORIENTED_EDGE('',*,*,#150,.F.);
#170=EDGE_CURVE('',#140,#120,#100,.T.);
#180=ORIENTED_EDGE('',*,*,#170,.F.);
#190=EDGE_LOOP('',(#180,#160));
#200=FACE_BOUND('',#190,.T.);
#210=CARTESIAN_POINT('',(0.,0.,0.));
#220=DIRECTION('',(0.,1.,0.));
#230=DIRECTION('',(1.,0.,0.));
#240=AXIS2_PLACEMENT_3D('',#210,#220,#230);
#250=CIRCLE('',#240,5.);
#260=CARTESIAN_POINT('',(5.,0.,0.));
#270=VERTEX_POINT('',#260);
#280=CARTESIAN_POINT('',(-5.,0.,-6.12323399573677E-16));
#290=VERTEX_POINT('',#280);
#300=EDGE_CURVE('',#270,#290,#250,.T.);
#310=ORIENTED_EDGE('',*,*,#300,.F.);
#320=EDGE_CURVE('',#290,#270,#250,.T.);
#330=ORIENTED_EDGE('',*,*,#320,.F.);
#340=EDGE_LOOP('',(#330,#310));
#350=FACE_OUTER_BOUND('',#340,.T.);
#360=ADVANCED_FACE('',(#200,#350),#50,.F.);
#370=CARTESIAN_POINT('',(0.,5.5,0.));
#380=DIRECTION('',(0.,1.,0.));
#390=DIRECTION('',(1.,0.,0.));
#400=AXIS2_PLACEMENT_3D('',#370,#380,#390);
#410=CYLINDRICAL_SURFACE('',#400,5.);
#420=CARTESIAN_POINT('',(5.,5.5,0.));
#430=DIRECTION('',(0.,1.,0.));
#440=VECTOR('',#430,1.);
#450=LINE('',#420,#440);
#460=CARTESIAN_POINT('',(5.,11.,0.));
#470=VERTEX_POINT('',#460);
#480=EDGE_CURVE('',#270,#470,#450,.T.);
#490=ORIENTED_EDGE('',*,*,#480,.T.);
#500=ORIENTED_EDGE('',*,*,#320,.T.);
#510=CARTESIAN_POINT('',(-5.,5.5,-6.12323399573677E-16));
#520=DIRECTION('',(0.,1.,0.));
#530=VECTOR('',#520,1.);
#540=LINE('',#510,#530);
#550=CARTESIAN_POINT('',(-5.,11.,-6.12323399573677E-16));
#560=VERTEX_POINT('',#550);
#570=EDGE_CURVE('',#290,#560,#540,.T.);
#580=ORIENTED_EDGE('',*,*,#570,.F.);
#590=CARTESIAN_POINT('',(0.,11.,0.));
#600=DIRECTION('',(0.,1.,0.));
#610=DIRECTION('',(1.,0.,0.));
#620=AXIS2_PLACEMENT_3D('',#590,#600,#610);
#630=CIRCLE('',#620,5.);
#640=EDGE_CURVE('',#560,#470,#630,.T.);
#650=ORIENTED_EDGE('',*,*,#640,.F.);
#660=EDGE_LOOP('',(#650,#580,#500,#490));
#670=FACE_OUTER_BOUND('',#660,.T.);
#680=ADVANCED_FACE('',(#670),#410,.T.);
#690=CARTESIAN_POINT('',(10.8,11.,0.));
#700=DIRECTION('',(-0.,1.,0.));
#710=DIRECTION('',(1.,0.,0.));
#720=AXIS2_PLACEMENT_3D('',#690,#700,#710);
#730=PLANE('',#720);
#740=EDGE_CURVE('',#470,#560,#630,.T.);
#750=ORIENTED_EDGE('',*,*,#740,.T.);
#760=ORIENTED_EDGE('',*,*,#640,.T.);
#770=EDGE_LOOP('',(#760,#750));
#780=FACE_BOUND('',#770,.T.);
#790=CARTESIAN_POINT('',(0.,11.,0.));
#800=DIRECTION('',(0.,1.,0.));
#810=DIRECTION('',(1.,0.,0.));
#820=AXIS2_PLACEMENT_3D('',#790,#800,#810);
#830=CIRCLE('',#820,16.1);
#840=CARTESIAN_POINT('',(16.1,11.,0.));
#850=VERTEX_POINT('',#840);
#860=CARTESIAN_POINT('',(-16.1,11.,-1.97168134662724E-15));
#870=VERTEX_POINT('',#860);
#880=EDGE_CURVE('',#850,#870,#830,.T.);
#890=ORIENTED_EDGE('',*,*,#880,.F.);
#900=EDGE_CURVE('',#870,#850,#830,.T.);
#910=ORIENTED_EDGE('',*,*,#900,.F.);
#920=EDGE_LOOP('',(#910,#890));
#930=FACE_OUTER_BOUND('',#920,.T.);
#940=ADVANCED_FACE('',(#780,#930),#730,.F.);
#950=CARTESIAN_POINT('',(0.,18.,0.));
#960=DIRECTION('',(0.,1.,0.));
#970=DIRECTION('',(1.,0.,0.));
#980=AXIS2_PLACEMENT_3D('',#950,#960,#970);
#990=CYLINDRICAL_SURFACE('',#980,16.6);
#1000=CARTESIAN_POINT('',(16.6,18.,0.));
#1010=DIRECTION('',(0.,1.,0.));
#1020=VECTOR('',#1010,1.);
#1030=LINE('',#1000,#1020);
#1040=CARTESIAN_POINT('',(16.6,11.5,0.));
#1050=VERTEX_POINT('',#1040);
#1060=CARTESIAN_POINT('',(16.6,24.5,0.));
#1070=VERTEX_POINT('',#1060);
#1080=EDGE_CURVE('',#1050,#1070,#1030,.T.);
#1090=ORIENTED_EDGE('',*,*,#1080,.T.);
#1100=CARTESIAN_POINT('',(0.,11.5,0.));
#1110=DIRECTION('',(0.,1.,0.));
#1120=DIRECTION('',(1.,0.,0.));
#1130=AXIS2_PLACEMENT_3D('',#1100,#1110,#1120);
#1140=CIRCLE('',#1130,16.6);
#1150=CARTESIAN_POINT('',(-16.6,11.5,-2.03291368658461E-15));
#1160=VERTEX_POINT('',#1150);
#1170=EDGE_CURVE('',#1160,#1050,#1140,.T.);
#1180=ORIENTED_EDGE('',*,*,#1170,.T.);
#1190=CARTESIAN_POINT('',(-16.6,18.,-2.03291368658461E-15));
#1200=DIRECTION('',(0.,1.,0.));
#1210=VECTOR('',#1200,1.);
#1220=LINE('',#1190,#1210);
#1230=CARTESIAN_POINT('',(-16.6,24.5,-2.03291368658461E-15));
#1240=VERTEX_POINT('',#1230);
#1250=EDGE_CURVE('',#1160,#1240,#1220,.T.);
#1260=ORIENTED_EDGE('',*,*,#1250,.F.);
#1270=CARTESIAN_POINT('',(0.,24.5,0.));
#1280=DIRECTION('',(0.,1.,0.));
#1290=DIRECTION('',(1.,0.,0.));
#1300=AXIS2_PLACEMENT_3D('',#1270,#1280,#1290);
#1310=CIRCLE('',#1300,16.6);
#1320=EDGE_CURVE('',#1240,#1070,#1310,.T.);
#1330=ORIENTED_EDGE('',*,*,#1320,.F.);
#1340=EDGE_LOOP('',(#1330,#1260,#1180,#1090));
#1350=FACE_OUTER_BOUND('',#1340,.T.);
#1360=ADVANCED_FACE('',(#1350),#990,.T.);
#1370=CARTESIAN_POINT('',(8.3,25.,0.));
#1380=DIRECTION('',(-0.,1.,0.));
#1390=DIRECTION('',(1.,0.,0.));
#1400=AXIS2_PLACEMENT_3D('',#1370,#1380,#1390);
#1410=PLANE('',#1400);
#1420=CARTESIAN_POINT('',(0.,25.,0.));
#1430=DIRECTION('',(0.,1.,0.));
#1440=DIRECTION('',(1.,0.,0.));
#1450=AXIS2_PLACEMENT_3D('',#1420,#1430,#1440);
#1460=CIRCLE('',#1450,16.1);
#1470=CARTESIAN_POINT('',(16.1,25.,-1.97168134662724E-15));
#1480=VERTEX_POINT('',#1470);
#1490=CARTESIAN_POINT('',(-16.1,25.,0.));
#1500=VERTEX_POINT('',#1490);
#1510=EDGE_CURVE('',#1480,#1500,#1460,.T.);
#1520=ORIENTED_EDGE('',*,*,#1510,.T.);
#1530=EDGE_CURVE('',#1500,#1480,#1460,.T.);
#1540=ORIENTED_EDGE('',*,*,#1530,.T.);
#1550=EDGE_LOOP('',(#1540,#1520));
#1560=FACE_OUTER_BOUND('',#1550,.T.);
#1570=ADVANCED_FACE('',(#1560),#1410,.T.);
#1580=CARTESIAN_POINT('',(0.,24.5,0.));
#1590=DIRECTION('',(0.,-1.,0.));
#1600=DIRECTION('',(-1.,0.,0.));
#1610=AXIS2_PLACEMENT_3D('',#1580,#1590,#1600);
#1620=CONICAL_SURFACE('',#1610,16.6,0.785398163397448);
#1630=CARTESIAN_POINT('',(-16.6,24.5,0.));
#1640=DIRECTION('',(-0.707106781186548,-0.707106781186548,0.));
#1650=VECTOR('',#1640,23.4759451353934);
#1660=LINE('',#1630,#1650);
#1670=EDGE_CURVE('',#1500,#1240,#1660,.T.);
#1680=ORIENTED_EDGE('',*,*,#1670,.T.);
#1690=ORIENTED_EDGE('',*,*,#1530,.F.);
#1700=CARTESIAN_POINT('',(16.6,24.5,-2.03291368658461E-15));
#1710=DIRECTION('',(0.707106781186548,-0.707106781186548,
-8.65956056235493E-17));
#1720=VECTOR('',#1710,23.4759451353934);
#1730=LINE('',#1700,#1720);
#1740=EDGE_CURVE('',#1480,#1070,#1730,.T.);
#1750=ORIENTED_EDGE('',*,*,#1740,.F.);
#1760=ORIENTED_EDGE('',*,*,#1320,.T.);
#1770=EDGE_LOOP('',(#1760,#1750,#1690,#1680));
#1780=FACE_OUTER_BOUND('',#1770,.T.);
#1790=ADVANCED_FACE('',(#1780),#1620,.T.);
#1800=CARTESIAN_POINT('',(0.,11.,0.));
#1810=DIRECTION('',(0.,1.,0.));
#1820=DIRECTION('',(1.,0.,0.));
#1830=AXIS2_PLACEMENT_3D('',#1800,#1810,#1820);
#1840=CONICAL_SURFACE('',#1830,16.1,0.785398163397448);
#1850=CARTESIAN_POINT('',(-16.1,11.,-1.97168134662724E-15));
#1860=DIRECTION('',(-0.707106781186548,0.707106781186548,
-8.65956056235493E-17));
#1870=VECTOR('',#1860,22.7688383542068);
#1880=LINE('',#1850,#1870);
#1890=EDGE_CURVE('',#870,#1160,#1880,.T.);
#1900=ORIENTED_EDGE('',*,*,#1890,.F.);
#1910=ORIENTED_EDGE('',*,*,#1170,.F.);
#1920=CARTESIAN_POINT('',(16.1,11.,0.));
#1930=DIRECTION('',(0.707106781186548,0.707106781186548,0.));
#1940=VECTOR('',#1930,22.7688383542068);
#1950=LINE('',#1920,#1940);
#1960=EDGE_CURVE('',#850,#1050,#1950,.T.);
#1970=ORIENTED_EDGE('',*,*,#1960,.T.);
#1980=ORIENTED_EDGE('',*,*,#900,.T.);
#1990=EDGE_LOOP('',(#1980,#1970,#1910,#1900));
#2000=FACE_OUTER_BOUND('',#1990,.T.);
#2010=ADVANCED_FACE('',(#2000),#1840,.T.);
#2020=CARTESIAN_POINT('',(0.,3.5,0.));
#2030=DIRECTION('',(0.,-1.,0.));
#2040=DIRECTION('',(1.,0.,0.));
#2050=AXIS2_PLACEMENT_3D('',#2020,#2030,#2040);
#2060=CYLINDRICAL_SURFACE('',#2050,1.65);
#2070=CARTESIAN_POINT('',(-1.65,3.5,2.02066721859313E-16));
#2080=DIRECTION('',(0.,-1.,0.));
#2090=VECTOR('',#2080,1.);
#2100=LINE('',#2070,#2090);
#2110=CARTESIAN_POINT('',(-1.65,7.,2.02066721859313E-16));
#2120=VERTEX_POINT('',#2110);
#2130=CARTESIAN_POINT('',(-1.65,0.85,2.02066721859313E-16));
#2140=VERTEX_POINT('',#2130);
#2150=EDGE_CURVE('',#2120,#2140,#2100,.T.);
#2160=ORIENTED_EDGE('',*,*,#2150,.T.);
#2170=CARTESIAN_POINT('',(0.,7.,0.));
#2180=DIRECTION('',(0.,1.,0.));
#2190=DIRECTION('',(1.,0.,0.));
#2200=AXIS2_PLACEMENT_3D('',#2170,#2180,#2190);
#2210=CIRCLE('',#2200,1.65);
#2220=CARTESIAN_POINT('',(1.65,7.,0.));
#2230=VERTEX_POINT('',#2220);
#2240=EDGE_CURVE('',#2230,#2120,#2210,.T.);
#2250=ORIENTED_EDGE('',*,*,#2240,.T.);
#2260=CARTESIAN_POINT('',(1.65,3.5,0.));
#2270=DIRECTION('',(0.,-1.,0.));
#2280=VECTOR('',#2270,1.);
#2290=LINE('',#2260,#2280);
#2300=CARTESIAN_POINT('',(1.65,0.850000000000001,0.));
#2310=VERTEX_POINT('',#2300);
#2320=EDGE_CURVE('',#2230,#2310,#2290,.T.);
#2330=ORIENTED_EDGE('',*,*,#2320,.F.);
#2340=CARTESIAN_POINT('',(0.,0.85,0.));
#2350=DIRECTION('',(0.,-1.,0.));
#2360=DIRECTION('',(-1.,0.,0.));
#2370=AXIS2_PLACEMENT_3D('',#2340,#2350,#2360);
#2380=CIRCLE('',#2370,1.65);
#2390=EDGE_CURVE('',#2140,#2310,#2380,.T.);
#2400=ORIENTED_EDGE('',*,*,#2390,.T.);
#2410=EDGE_LOOP('',(#2400,#2330,#2250,#2160));
#2420=FACE_OUTER_BOUND('',#2410,.T.);
#2430=ADVANCED_FACE('M4_5705818',(#2420),#2060,.F.);
#2440=COLOUR_RGB('',1.,0.,0.);
#2450=FILL_AREA_STYLE_COLOUR('',#2440);
#2460=FILL_AREA_STYLE('',(#2450));
#2470=SURFACE_STYLE_FILL_AREA(#2460);
#2480=SURFACE_SIDE_STYLE('',(#2470));
#2490=SURFACE_STYLE_USAGE(.BOTH.,#2480);
#2500=PRESENTATION_STYLE_ASSIGNMENT((#2490));
#2510=CARTESIAN_POINT('',(1.6425,7.,0.));
#2520=DIRECTION('',(0.,-1.,0.));
#2530=DIRECTION('',(1.,0.,0.));
#2540=AXIS2_PLACEMENT_3D('',#2510,#2520,#2530);
#2550=PLANE('',#2540);
#2560=ORIENTED_EDGE('',*,*,#2240,.F.);
#2570=EDGE_CURVE('',#2120,#2230,#2210,.T.);
#2580=ORIENTED_EDGE('',*,*,#2570,.F.);
#2590=EDGE_LOOP('',(#2580,#2560));
#2600=FACE_OUTER_BOUND('',#2590,.T.);
#2610=CARTESIAN_POINT('',(0.,7.,0.));
#2620=DIRECTION('',(0.,1.,0.));
#2630=DIRECTION('',(1.,0.,0.));
#2640=AXIS2_PLACEMENT_3D('',#2610,#2620,#2630);
#2650=CIRCLE('',#2640,1.635);
#2660=CARTESIAN_POINT('',(1.635,7.,0.));
#2670=VERTEX_POINT('',#2660);
#2680=CARTESIAN_POINT('',(-1.635,7.,2.00229751660592E-16));
#2690=VERTEX_POINT('',#2680);
#2700=EDGE_CURVE('',#2670,#2690,#2650,.T.);
#2710=ORIENTED_EDGE('',*,*,#2700,.T.);
#2720=EDGE_CURVE('',#2690,#2670,#2650,.T.);
#2730=ORIENTED_EDGE('',*,*,#2720,.T.);
#2740=EDGE_LOOP('',(#2730,#2710));
#2750=FACE_BOUND('',#2740,.T.);
#2760=ADVANCED_FACE('',(#2600,#2750),#2550,.T.);
#2770=CARTESIAN_POINT('',(0.,8.5,0.));
#2780=DIRECTION('',(0.,-1.,0.));
#2790=DIRECTION('',(1.,0.,0.));
#2800=AXIS2_PLACEMENT_3D('',#2770,#2780,#2790);
#2810=CYLINDRICAL_SURFACE('',#2800,1.635);
#2820=CARTESIAN_POINT('',(1.635,8.5,0.));
#2830=DIRECTION('',(0.,-1.,0.));
#2840=VECTOR('',#2830,1.);
#2850=LINE('',#2820,#2840);
#2860=CARTESIAN_POINT('',(1.635,10.,0.));
#2870=VERTEX_POINT('',#2860);
#2880=EDGE_CURVE('',#2870,#2670,#2850,.T.);
#2890=ORIENTED_EDGE('',*,*,#2880,.T.);
#2900=CARTESIAN_POINT('',(0.,10.,0.));
#2910=DIRECTION('',(0.,1.,0.));
#2920=DIRECTION('',(1.,0.,0.));
#2930=AXIS2_PLACEMENT_3D('',#2900,#2910,#2920);
#2940=CIRCLE('',#2930,1.635);
#2950=CARTESIAN_POINT('',(-1.635,10.,2.00229751660592E-16));
#2960=VERTEX_POINT('',#2950);
#2970=EDGE_CURVE('',#2960,#2870,#2940,.T.);
#2980=ORIENTED_EDGE('',*,*,#2970,.T.);
#2990=CARTESIAN_POINT('',(-1.635,8.5,2.00229751660592E-16));
#3000=DIRECTION('',(0.,-1.,0.));
#3010=VECTOR('',#3000,1.);
#3020=LINE('',#2990,#3010);
#3030=EDGE_CURVE('',#2960,#2690,#3020,.T.);
#3040=ORIENTED_EDGE('',*,*,#3030,.F.);
#3050=ORIENTED_EDGE('',*,*,#2720,.F.);
#3060=EDGE_LOOP('',(#3050,#3040,#2980,#2890));
#3070=FACE_OUTER_BOUND('',#3060,.T.);
#3080=ADVANCED_FACE('',(#3070),#2810,.F.);
#3090=CARTESIAN_POINT('',(0.,10.,0.));
#3100=DIRECTION('',(0.,-1.,0.));
#3110=DIRECTION('',(1.,0.,0.));
#3120=AXIS2_PLACEMENT_3D('',#3090,#3100,#3110);
#3130=CONICAL_SURFACE('',#3120,1.635,1.02974425867666);
#3140=CARTESIAN_POINT('',(1.635,10.,0.));
#3150=DIRECTION('',(0.857167300702113,-0.515038074910054,0.));
#3160=VECTOR('',#3150,1.90744560444706);
#3170=LINE('',#3140,#3160);
#3180=CARTESIAN_POINT('',(-2.22044604925031E-16,10.9824071121101,
2.46519032881566E-32));
#3190=VERTEX_POINT('',#3180);
#3200=EDGE_CURVE('',#3190,#2870,#3170,.T.);
#3210=ORIENTED_EDGE('',*,*,#3200,.T.);
#3220=CARTESIAN_POINT('',(-1.635,10.,2.00229751660592E-16));
#3230=DIRECTION('',(-0.857167300702113,-0.515038074910054,
1.04972719113862E-16));
#3240=VECTOR('',#3230,1.90744560444706);
#3250=LINE('',#3220,#3240);
#3260=EDGE_CURVE('',#3190,#2960,#3250,.T.);
#3270=ORIENTED_EDGE('',*,*,#3260,.F.);
#3280=ORIENTED_EDGE('',*,*,#2970,.F.);
#3290=EDGE_LOOP('',(#3280,#3270,#3210));
#3300=FACE_OUTER_BOUND('',#3290,.T.);
#3310=ADVANCED_FACE('',(#3300),#3130,.F.);
#3320=CARTESIAN_POINT('',(0.,0.85,0.));
#3330=DIRECTION('',(0.,-1.,0.));
#3340=DIRECTION('',(-1.,0.,0.));
#3350=AXIS2_PLACEMENT_3D('',#3320,#3330,#3340);
#3360=CONICAL_SURFACE('',#3350,1.65,0.785398163397448);
#3370=CARTESIAN_POINT('',(1.65,0.85,-2.02066721859313E-16));
#3380=DIRECTION('',(0.707106781186548,-0.707106781186548,
-8.65956056235493E-17));
#3390=VECTOR('',#3380,2.33345237791561);
#3400=LINE('',#3370,#3390);
#3410=EDGE_CURVE('',#2310,#120,#3400,.T.);
#3420=ORIENTED_EDGE('',*,*,#3410,.F.);
#3430=ORIENTED_EDGE('',*,*,#170,.T.);
#3440=CARTESIAN_POINT('',(-1.65,0.85,0.));
#3450=DIRECTION('',(-0.707106781186548,-0.707106781186548,0.));
#3460=VECTOR('',#3450,2.33345237791561);
#3470=LINE('',#3440,#3460);
#3480=EDGE_CURVE('',#2140,#140,#3470,.T.);
#3490=ORIENTED_EDGE('',*,*,#3480,.T.);
#3500=ORIENTED_EDGE('',*,*,#2390,.F.);
#3510=EDGE_LOOP('',(#3500,#3490,#3430,#3420));
#3520=FACE_OUTER_BOUND('',#3510,.T.);
#3530=ADVANCED_FACE('',(#3520),#3360,.F.);
#3540=CARTESIAN_POINT('',(0.,8.5,0.));
#3550=DIRECTION('',(0.,-1.,0.));
#3560=DIRECTION('',(1.,0.,0.));
#3570=AXIS2_PLACEMENT_3D('',#3540,#3550,#3560);
#3580=CYLINDRICAL_SURFACE('',#3570,1.635);
#3590=ORIENTED_EDGE('',*,*,#2700,.F.);
#3600=ORIENTED_EDGE('',*,*,#3030,.T.);
#3610=EDGE_CURVE('',#2870,#2960,#2940,.T.);
#3620=ORIENTED_EDGE('',*,*,#3610,.T.);
#3630=ORIENTED_EDGE('',*,*,#2880,.F.);
#3640=EDGE_LOOP('',(#3630,#3620,#3600,#3590));
#3650=FACE_OUTER_BOUND('',#3640,.T.);
#3660=ADVANCED_FACE('',(#3650),#3580,.F.);
#3670=CARTESIAN_POINT('',(0.,18.,0.));
#3680=DIRECTION('',(0.,1.,0.));
#3690=DIRECTION('',(1.,0.,0.));
#3700=AXIS2_PLACEMENT_3D('',#3670,#3680,#3690);
#3710=CYLINDRICAL_SURFACE('',#3700,16.6);
#3720=EDGE_CURVE('',#1070,#1240,#1310,.T.);
#3730=ORIENTED_EDGE('',*,*,#3720,.F.);
#3740=ORIENTED_EDGE('',*,*,#1250,.T.);
#3750=EDGE_CURVE('',#1050,#1160,#1140,.T.);
#3760=ORIENTED_EDGE('',*,*,#3750,.T.);
#3770=ORIENTED_EDGE('',*,*,#1080,.F.);
#3780=EDGE_LOOP('',(#3770,#3760,#3740,#3730));
#3790=FACE_OUTER_BOUND('',#3780,.T.);
#3800=ADVANCED_FACE('',(#3790),#3710,.T.);
#3810=CARTESIAN_POINT('',(0.,11.,0.));
#3820=DIRECTION('',(0.,1.,0.));
#3830=DIRECTION('',(1.,0.,0.));
#3840=AXIS2_PLACEMENT_3D('',#3810,#3820,#3830);
#3850=CONICAL_SURFACE('',#3840,16.1,0.785398163397448);
#3860=ORIENTED_EDGE('',*,*,#3750,.F.);
#3870=ORIENTED_EDGE('',*,*,#1890,.T.);
#3880=ORIENTED_EDGE('',*,*,#880,.T.);
#3890=ORIENTED_EDGE('',*,*,#1960,.F.);
#3900=EDGE_LOOP('',(#3890,#3880,#3870,#3860));
#3910=FACE_OUTER_BOUND('',#3900,.T.);
#3920=ADVANCED_FACE('',(#3910),#3850,.T.);
#3930=CARTESIAN_POINT('',(0.,5.5,0.));
#3940=DIRECTION('',(0.,1.,0.));
#3950=DIRECTION('',(1.,0.,0.));
#3960=AXIS2_PLACEMENT_3D('',#3930,#3940,#3950);
#3970=CYLINDRICAL_SURFACE('',#3960,5.);
#3980=ORIENTED_EDGE('',*,*,#740,.F.);
#3990=ORIENTED_EDGE('',*,*,#570,.T.);
#4000=ORIENTED_EDGE('',*,*,#300,.T.);
#4010=ORIENTED_EDGE('',*,*,#480,.F.);
#4020=EDGE_LOOP('',(#4010,#4000,#3990,#3980));
#4030=FACE_OUTER_BOUND('',#4020,.T.);
#4040=ADVANCED_FACE('',(#4030),#3970,.T.);
#4050=CARTESIAN_POINT('',(0.,10.,0.));
#4060=DIRECTION('',(0.,-1.,0.));
#4070=DIRECTION('',(1.,0.,0.));
#4080=AXIS2_PLACEMENT_3D('',#4050,#4060,#4070);
#4090=CONICAL_SURFACE('',#4080,1.635,1.02974425867666);
#4100=ORIENTED_EDGE('',*,*,#3200,.F.);
#4110=ORIENTED_EDGE('',*,*,#3610,.F.);
#4120=ORIENTED_EDGE('',*,*,#3260,.T.);
#4130=EDGE_LOOP('',(#4120,#4110,#4100));
#4140=FACE_OUTER_BOUND('',#4130,.T.);
#4150=ADVANCED_FACE('',(#4140),#4090,.F.);
#4160=CARTESIAN_POINT('',(0.,3.5,0.));
#4170=DIRECTION('',(0.,-1.,0.));
#4180=DIRECTION('',(1.,0.,0.));
#4190=AXIS2_PLACEMENT_3D('',#4160,#4170,#4180);
#4200=CYLINDRICAL_SURFACE('',#4190,1.65);
#4210=ORIENTED_EDGE('',*,*,#2150,.F.);
#4220=EDGE_CURVE('',#2310,#2140,#2380,.T.);
#4230=ORIENTED_EDGE('',*,*,#4220,.T.);
#4240=ORIENTED_EDGE('',*,*,#2320,.T.);
#4250=ORIENTED_EDGE('',*,*,#2570,.T.);
#4260=EDGE_LOOP('',(#4250,#4240,#4230,#4210));
#4270=FACE_OUTER_BOUND('',#4260,.T.);
#4280=ADVANCED_FACE('',(#4270),#4200,.F.);
#4290=COLOUR_RGB('',1.,0.,0.);
#4300=FILL_AREA_STYLE_COLOUR('',#4290);
#4310=FILL_AREA_STYLE('',(#4300));
#4320=SURFACE_STYLE_FILL_AREA(#4310);
#4330=SURFACE_SIDE_STYLE('',(#4320));
#4340=SURFACE_STYLE_USAGE(.BOTH.,#4330);
#4350=PRESENTATION_STYLE_ASSIGNMENT((#4340));
#4360=CARTESIAN_POINT('',(0.,0.85,0.));
#4370=DIRECTION('',(0.,-1.,0.));
#4380=DIRECTION('',(-1.,0.,0.));
#4390=AXIS2_PLACEMENT_3D('',#4360,#4370,#4380);
#4400=CONICAL_SURFACE('',#4390,1.65,0.785398163397448);
#4410=ORIENTED_EDGE('',*,*,#150,.T.);
#4420=ORIENTED_EDGE('',*,*,#3410,.T.);
#4430=ORIENTED_EDGE('',*,*,#4220,.F.);
#4440=ORIENTED_EDGE('',*,*,#3480,.F.);
#4450=EDGE_LOOP('',(#4440,#4430,#4420,#4410));
#4460=FACE_OUTER_BOUND('',#4450,.T.);
#4470=ADVANCED_FACE('',(#4460),#4400,.F.);
#4480=CARTESIAN_POINT('',(0.,24.5,0.));
#4490=DIRECTION('',(0.,-1.,0.));
#4500=DIRECTION('',(-1.,0.,0.));
#4510=AXIS2_PLACEMENT_3D('',#4480,#4490,#4500);
#4520=CONICAL_SURFACE('',#4510,16.6,0.785398163397448);
#4530=ORIENTED_EDGE('',*,*,#3720,.T.);
#4540=ORIENTED_EDGE('',*,*,#1740,.T.);
#4550=ORIENTED_EDGE('',*,*,#1510,.F.);
#4560=ORIENTED_EDGE('',*,*,#1670,.F.);
#4570=EDGE_LOOP('',(#4560,#4550,#4540,#4530));
#4580=FACE_OUTER_BOUND('',#4570,.T.);
#4590=ADVANCED_FACE('',(#4580),#4520,.T.);
#4600=CLOSED_SHELL('',(#360,#680,#940,#1360,#1570,#1790,#2010,#2430,
#2760,#3080,#3310,#3530,#3660,#3800,#3920,#4040,#4150,#4280,#4470,#4590)
);
#4610=MANIFOLD_SOLID_BREP('',#4600);
#4620=CARTESIAN_POINT('',(0.,0.,0.));
#4630=DIRECTION('',(0.,0.,1.));
#4640=DIRECTION('',(1.,0.,0.));
#4650=AXIS2_PLACEMENT_3D('',#4620,#4630,#4640);
#4660=APPLICATION_CONTEXT(' ');
#4670=APPLICATION_PROTOCOL_DEFINITION(' ','automotive_design',1998,#4660
);
#4680=PRODUCT_CONTEXT('',#4660,'mechanical');
#4690=PRODUCT_DEFINITION_CONTEXT('part definition',#4660,'design');
#4700=PRODUCT('AL-11200','AL-11200','',(#4680));
#4710=PRODUCT_RELATED_PRODUCT_CATEGORY('part',' ',(#4700));
#4720=PRODUCT_DEFINITION_FORMATION_WITH_SPECIFIED_SOURCE('','',#4700,
.BOUGHT.);
#4730=PRODUCT_DEFINITION('',' ',#4720,#4690);
#4740=PRODUCT_DEFINITION_SHAPE('','',#4730);
#4750=DIMENSIONAL_EXPONENTS(1.,0.,0.,0.,0.,0.,0.);
#4760=DIMENSIONAL_EXPONENTS(0.,0.,0.,0.,0.,0.,0.);
#4770=DIMENSIONAL_EXPONENTS(0.,0.,0.,0.,0.,0.,0.);
#4780=(LENGTH_UNIT() NAMED_UNIT(*) SI_UNIT(.MILLI.,.METRE.));
#4790=(NAMED_UNIT(*) PLANE_ANGLE_UNIT() SI_UNIT($,.RADIAN.));
#4800=(NAMED_UNIT(*) SI_UNIT($,.STERADIAN.) SOLID_ANGLE_UNIT());
#4810=(GEOMETRIC_REPRESENTATION_CONTEXT(3) 
GLOBAL_UNCERTAINTY_ASSIGNED_CONTEXT((#4820)) 
GLOBAL_UNIT_ASSIGNED_CONTEXT((#4780,#4790,#4800)) REPRESENTATION_CONTEXT
('',''));
#4820=UNCERTAINTY_MEASURE_WITH_UNIT(LENGTH_MEASURE(1.E-6),#4780,
'distance_accuracy_value','maximum gap value');
#4830=ADVANCED_BREP_SHAPE_REPRESENTATION('',(#4650,#4610),#4810);
#4840=SHAPE_DEFINITION_REPRESENTATION(#4740,#4830);
#4850=COLOUR_RGB('',0.600000023841858,0.600000023841858,
0.600000023841858);
#4860=FILL_AREA_STYLE_COLOUR('',#4850);
#4870=FILL_AREA_STYLE('',(#4860));
#4880=SURFACE_STYLE_FILL_AREA(#4870);
#4890=SURFACE_SIDE_STYLE('',(#4880));
#4900=SURFACE_STYLE_USAGE(.BOTH.,#4890);
#4910=PRESENTATION_STYLE_ASSIGNMENT((#4900));
#4920=STYLED_ITEM('',(#4910),#4610);
#4930=OVER_RIDING_STYLED_ITEM('',(#2500),#2430,#4920);
#4940=OVER_RIDING_STYLED_ITEM('',(#4350),#4280,#4920);
#4950=DRAUGHTING_MODEL('',(#4920,#4930,#4940),#4810);
ENDSEC;
END-ISO-10303-21;
