ISO-10303-21;
HEADER;
FILE_DESCRIPTION(('Creo Elements/Direct Modeling STEP Export'),'2;1');
FILE_NAME('872-24.stp','2020-12-15T12:04:16',(''),(''),
'Creo Elements/Direct Modeling STEP processor for AP214 (Solid Model)',
'Creo Elements/Direct Modeling 20.0  12-Nov-2016 (C) Parametric Technolo
gy GmbH','');
FILE_SCHEMA(('AUTOMOTIVE_DESIGN { 1 0 10303 214 1 1 1 1 }'));
ENDSEC;
DATA;
#10=CARTESIAN_POINT('',(14.8,0.,0.));
#20=DIRECTION('',(-0.,1.,0.));
#30=DIRECTION('',(1.,0.,0.));
#40=AXIS2_PLACEMENT_3D('',#10,#20,#30);
#50=PLANE('',#40);
#60=CARTESIAN_POINT('',(11.8,0.,0.));
#70=DIRECTION('',(0.,-1.,0.));
#80=DIRECTION('',(-1.,0.,0.));
#90=AXIS2_PLACEMENT_3D('',#60,#70,#80);
#100=CIRCLE('',#90,2.5);
#110=CARTESIAN_POINT('',(14.3,7.7715611723761E-16,-3.06161699786838E-16)
);
#120=VERTEX_POINT('',#110);
#130=CARTESIAN_POINT('',(9.3,0.,0.));
#140=VERTEX_POINT('',#130);
#150=EDGE_CURVE('',#120,#140,#100,.T.);
#160=ORIENTED_EDGE('',*,*,#150,.F.);
#170=EDGE_CURVE('',#140,#120,#100,.T.);
#180=ORIENTED_EDGE('',*,*,#170,.F.);
#190=EDGE_LOOP('',(#180,#160));
#200=FACE_BOUND('',#190,.T.);
#210=CARTESIAN_POINT('',(11.8,-2.22044604925031E-16,0.));
#220=DIRECTION('',(0.,1.,0.));
#230=DIRECTION('',(1.,0.,0.));
#240=AXIS2_PLACEMENT_3D('',#210,#220,#230);
#250=CIRCLE('',#240,5.7);
#260=CARTESIAN_POINT('',(17.5,-2.22044604925031E-16,0.));
#270=VERTEX_POINT('',#260);
#280=CARTESIAN_POINT('',(6.1,-2.22044604925031E-16,0.));
#290=VERTEX_POINT('',#280);
#300=EDGE_CURVE('',#270,#290,#250,.T.);
#310=ORIENTED_EDGE('',*,*,#300,.F.);
#320=EDGE_CURVE('',#290,#270,#250,.T.);
#330=ORIENTED_EDGE('',*,*,#320,.F.);
#340=EDGE_LOOP('',(#330,#310));
#350=FACE_OUTER_BOUND('',#340,.T.);
#360=ADVANCED_FACE('',(#200,#350),#50,.F.);
#370=CARTESIAN_POINT('',(11.8,2.7,0.));
#380=DIRECTION('',(0.,1.,0.));
#390=DIRECTION('',(1.,0.,0.));
#400=AXIS2_PLACEMENT_3D('',#370,#380,#390);
#410=CYLINDRICAL_SURFACE('',#400,6.);
#420=CARTESIAN_POINT('',(17.8,2.7,0.));
#430=DIRECTION('',(0.,1.,0.));
#440=VECTOR('',#430,1.);
#450=LINE('',#420,#440);
#460=CARTESIAN_POINT('',(17.8,0.3,0.));
#470=VERTEX_POINT('',#460);
#480=CARTESIAN_POINT('',(17.8,5.4,0.));
#490=VERTEX_POINT('',#480);
#500=EDGE_CURVE('',#470,#490,#450,.T.);
#510=ORIENTED_EDGE('',*,*,#500,.T.);
#520=CARTESIAN_POINT('',(11.8,0.3,0.));
#530=DIRECTION('',(0.,1.,0.));
#540=DIRECTION('',(1.,0.,0.));
#550=AXIS2_PLACEMENT_3D('',#520,#530,#540);
#560=CIRCLE('',#550,6.);
#570=CARTESIAN_POINT('',(5.8,0.3,0.));
#580=VERTEX_POINT('',#570);
#590=EDGE_CURVE('',#580,#470,#560,.T.);
#600=ORIENTED_EDGE('',*,*,#590,.T.);
#610=CARTESIAN_POINT('',(5.8,2.7,-7.34788079488412E-16));
#620=DIRECTION('',(0.,1.,0.));
#630=VECTOR('',#620,1.);
#640=LINE('',#610,#630);
#650=CARTESIAN_POINT('',(5.8,5.4,-7.34788079488412E-16));
#660=VERTEX_POINT('',#650);
#670=EDGE_CURVE('',#580,#660,#640,.T.);
#680=ORIENTED_EDGE('',*,*,#670,.F.);
#690=CARTESIAN_POINT('',(11.8,5.4,0.));
#700=DIRECTION('',(0.,1.,0.));
#710=DIRECTION('',(1.,0.,0.));
#720=AXIS2_PLACEMENT_3D('',#690,#700,#710);
#730=CIRCLE('',#720,6.);
#740=EDGE_CURVE('',#660,#490,#730,.T.);
#750=ORIENTED_EDGE('',*,*,#740,.F.);
#760=EDGE_LOOP('',(#750,#680,#600,#510));
#770=FACE_OUTER_BOUND('',#760,.T.);
#780=ADVANCED_FACE('',(#770),#410,.T.);
#790=CARTESIAN_POINT('',(11.8,22.6000806697919,0.));
#800=DIRECTION('',(0.,1.,0.));
#810=DIRECTION('',(1.,0.,0.));
#820=AXIS2_PLACEMENT_3D('',#790,#800,#810);
#830=CONICAL_SURFACE('',#820,11.7232751063423,0.321222754473017);
#840=CARTESIAN_POINT('',(23.5232751063423,22.6000806697919,0.));
#850=DIRECTION('',(0.31572700702161,0.948850070894858,0.));
#860=VECTOR('',#850,37.131049437085);
#870=LINE('',#840,#860);
#880=CARTESIAN_POINT('',(23.5232751063423,22.6000806697919,0.));
#890=VERTEX_POINT('',#880);
#900=EDGE_CURVE('',#490,#890,#870,.T.);
#910=ORIENTED_EDGE('',*,*,#900,.T.);
#920=ORIENTED_EDGE('',*,*,#740,.T.);
#930=CARTESIAN_POINT('',(0.0767248936577154,22.6000806697919,
-1.43568713345059E-15));
#940=DIRECTION('',(-0.31572700702161,0.948850070894858,
-3.86654068553389E-17));
#950=VECTOR('',#940,37.131049437085);
#960=LINE('',#930,#950);
#970=CARTESIAN_POINT('',(0.0767248936577147,22.6000806697919,0.));
#980=VERTEX_POINT('',#970);
#990=EDGE_CURVE('',#660,#980,#960,.T.);
#1000=ORIENTED_EDGE('',*,*,#990,.F.);
#1010=CARTESIAN_POINT('',(11.8,22.6000806697919,0.));
#1020=DIRECTION('',(0.,1.,0.));
#1030=DIRECTION('',(1.,0.,0.));
#1040=AXIS2_PLACEMENT_3D('',#1010,#1020,#1030);
#1050=CIRCLE('',#1040,11.7232751063423);
#1060=EDGE_CURVE('',#980,#890,#1050,.T.);
#1070=ORIENTED_EDGE('',*,*,#1060,.F.);
#1080=EDGE_LOOP('',(#1070,#1000,#920,#910));
#1090=FACE_OUTER_BOUND('',#1080,.T.);
#1100=ADVANCED_FACE('',(#1090),#830,.T.);
#1110=CARTESIAN_POINT('',(11.8,23.0736711803243,0.));
#1120=DIRECTION('',(0.,1.,0.));
#1130=DIRECTION('',(1.,0.,0.));
#1140=AXIS2_PLACEMENT_3D('',#1110,#1120,#1130);
#1150=TOROIDAL_SURFACE('',#1140,10.3,1.5);
#1160=CARTESIAN_POINT('',(22.1,23.0736711803243,0.));
#1170=DIRECTION('',(0.,0.,-1.));
#1180=DIRECTION('',(1.,0.,0.));
#1190=AXIS2_PLACEMENT_3D('',#1160,#1170,#1180);
#1200=CIRCLE('',#1190,1.5);
#1210=CARTESIAN_POINT('',(22.6421052631579,24.472285452973,0.));
#1220=VERTEX_POINT('',#1210);
#1230=EDGE_CURVE('',#1220,#890,#1200,.T.);
#1240=ORIENTED_EDGE('',*,*,#1230,.F.);
#1250=ORIENTED_EDGE('',*,*,#1060,.T.);
#1260=CARTESIAN_POINT('',(1.5,23.0736711803243,0.));
#1270=DIRECTION('',(0.,0.,1.));
#1280=DIRECTION('',(-1.,0.,0.));
#1290=AXIS2_PLACEMENT_3D('',#1260,#1270,#1280);
#1300=CIRCLE('',#1290,1.5);
#1310=CARTESIAN_POINT('',(0.957894736842099,24.472285452973,0.));
#1320=VERTEX_POINT('',#1310);
#1330=EDGE_CURVE('',#1320,#980,#1300,.T.);
#1340=ORIENTED_EDGE('',*,*,#1330,.T.);
#1350=CARTESIAN_POINT('',(11.8,24.472285452973,0.));
#1360=DIRECTION('',(0.,1.,0.));
#1370=DIRECTION('',(1.,0.,0.));
#1380=AXIS2_PLACEMENT_3D('',#1350,#1360,#1370);
#1390=CIRCLE('',#1380,10.8421052631579);
#1400=EDGE_CURVE('',#1320,#1220,#1390,.T.);
#1410=ORIENTED_EDGE('',*,*,#1400,.F.);
#1420=EDGE_LOOP('',(#1410,#1340,#1250,#1240));
#1430=FACE_OUTER_BOUND('',#1420,.T.);
#1440=ADVANCED_FACE('',(#1430),#1150,.T.);
#1450=CARTESIAN_POINT('',(11.8,-3.5,0.));
#1460=DIRECTION('',(0.,1.,0.));
#1470=DIRECTION('',(1.,0.,0.));
#1480=AXIS2_PLACEMENT_3D('',#1450,#1460,#1470);
#1490=SPHERICAL_SURFACE('',#1480,30.);
#1500=CARTESIAN_POINT('',(11.8,-3.5,0.));
#1510=DIRECTION('',(0.,0.,-1.));
#1520=DIRECTION('',(1.,-0.,0.));
#1530=AXIS2_PLACEMENT_3D('',#1500,#1510,#1520);
#1540=CIRCLE('',#1530,30.);
#1550=CARTESIAN_POINT('',(11.8,26.5,0.));
#1560=VERTEX_POINT('',#1550);
#1570=EDGE_CURVE('',#1320,#1560,#1540,.T.);
#1580=ORIENTED_EDGE('',*,*,#1570,.F.);
#1590=EDGE_CURVE('',#1560,#1220,#1540,.T.);
#1600=ORIENTED_EDGE('',*,*,#1590,.F.);
#1610=ORIENTED_EDGE('',*,*,#1400,.T.);
#1620=EDGE_LOOP('',(#1610,#1600,#1580));
#1630=FACE_OUTER_BOUND('',#1620,.T.);
#1640=ADVANCED_FACE('',(#1630),#1490,.T.);
#1650=CARTESIAN_POINT('',(11.8,0.3,0.));
#1660=DIRECTION('',(0.,1.,0.));
#1670=DIRECTION('',(1.,0.,0.));
#1680=AXIS2_PLACEMENT_3D('',#1650,#1660,#1670);
#1690=TOROIDAL_SURFACE('',#1680,5.7,0.3);
#1700=CARTESIAN_POINT('',(6.1,0.3,0.));
#1710=DIRECTION('',(0.,0.,1.));
#1720=DIRECTION('',(1.,0.,0.));
#1730=AXIS2_PLACEMENT_3D('',#1700,#1710,#1720);
#1740=CIRCLE('',#1730,0.3);
#1750=EDGE_CURVE('',#580,#290,#1740,.T.);
#1760=ORIENTED_EDGE('',*,*,#1750,.T.);
#1770=ORIENTED_EDGE('',*,*,#590,.F.);
#1780=CARTESIAN_POINT('',(17.5,0.3,0.));
#1790=DIRECTION('',(0.,0.,-1.));
#1800=DIRECTION('',(-1.,0.,0.));
#1810=AXIS2_PLACEMENT_3D('',#1780,#1790,#1800);
#1820=CIRCLE('',#1810,0.3);
#1830=EDGE_CURVE('',#470,#270,#1820,.T.);
#1840=ORIENTED_EDGE('',*,*,#1830,.F.);
#1850=ORIENTED_EDGE('',*,*,#320,.T.);
#1860=EDGE_LOOP('',(#1850,#1840,#1770,#1760));
#1870=FACE_OUTER_BOUND('',#1860,.T.);
#1880=ADVANCED_FACE('',(#1870),#1690,.T.);
#1890=CARTESIAN_POINT('',(11.8,3.5,0.));
#1900=DIRECTION('',(0.,-1.,0.));
#1910=DIRECTION('',(1.,0.,0.));
#1920=AXIS2_PLACEMENT_3D('',#1890,#1900,#1910);
#1930=CYLINDRICAL_SURFACE('',#1920,1.65);
#1940=CARTESIAN_POINT('',(10.15,3.5,2.02066721859313E-16));
#1950=DIRECTION('',(0.,-1.,0.));
#1960=VECTOR('',#1950,1.);
#1970=LINE('',#1940,#1960);
#1980=CARTESIAN_POINT('',(10.15,7.,2.02066721859313E-16));
#1990=VERTEX_POINT('',#1980);
#2000=CARTESIAN_POINT('',(10.15,0.85,2.02066721859313E-16));
#2010=VERTEX_POINT('',#2000);
#2020=EDGE_CURVE('',#1990,#2010,#1970,.T.);
#2030=ORIENTED_EDGE('',*,*,#2020,.T.);
#2040=CARTESIAN_POINT('',(11.8,7.,0.));
#2050=DIRECTION('',(0.,1.,0.));
#2060=DIRECTION('',(1.,0.,0.));
#2070=AXIS2_PLACEMENT_3D('',#2040,#2050,#2060);
#2080=CIRCLE('',#2070,1.65);
#2090=CARTESIAN_POINT('',(13.45,7.,0.));
#2100=VERTEX_POINT('',#2090);
#2110=EDGE_CURVE('',#2100,#1990,#2080,.T.);
#2120=ORIENTED_EDGE('',*,*,#2110,.T.);
#2130=CARTESIAN_POINT('',(13.45,3.5,0.));
#2140=DIRECTION('',(0.,-1.,0.));
#2150=VECTOR('',#2140,1.);
#2160=LINE('',#2130,#2150);
#2170=CARTESIAN_POINT('',(13.45,0.850000000000001,0.));
#2180=VERTEX_POINT('',#2170);
#2190=EDGE_CURVE('',#2100,#2180,#2160,.T.);
#2200=ORIENTED_EDGE('',*,*,#2190,.F.);
#2210=CARTESIAN_POINT('',(11.8,0.85,0.));
#2220=DIRECTION('',(0.,-1.,0.));
#2230=DIRECTION('',(-1.,0.,0.));
#2240=AXIS2_PLACEMENT_3D('',#2210,#2220,#2230);
#2250=CIRCLE('',#2240,1.65);
#2260=EDGE_CURVE('',#2010,#2180,#2250,.T.);
#2270=ORIENTED_EDGE('',*,*,#2260,.T.);
#2280=EDGE_LOOP('',(#2270,#2200,#2120,#2030));
#2290=FACE_OUTER_BOUND('',#2280,.T.);
#2300=ADVANCED_FACE('M4_973133',(#2290),#1930,.F.);
#2310=COLOUR_RGB('',1.,0.,0.);
#2320=FILL_AREA_STYLE_COLOUR('',#2310);
#2330=FILL_AREA_STYLE('',(#2320));
#2340=SURFACE_STYLE_FILL_AREA(#2330);
#2350=SURFACE_SIDE_STYLE('',(#2340));
#2360=SURFACE_STYLE_USAGE(.BOTH.,#2350);
#2370=PRESENTATION_STYLE_ASSIGNMENT((#2360));
#2380=CARTESIAN_POINT('',(13.4425,7.,0.));
#2390=DIRECTION('',(0.,-1.,0.));
#2400=DIRECTION('',(1.,0.,0.));
#2410=AXIS2_PLACEMENT_3D('',#2380,#2390,#2400);
#2420=PLANE('',#2410);
#2430=ORIENTED_EDGE('',*,*,#2110,.F.);
#2440=EDGE_CURVE('',#1990,#2100,#2080,.T.);
#2450=ORIENTED_EDGE('',*,*,#2440,.F.);
#2460=EDGE_LOOP('',(#2450,#2430));
#2470=FACE_OUTER_BOUND('',#2460,.T.);
#2480=CARTESIAN_POINT('',(11.8,7.,0.));
#2490=DIRECTION('',(0.,1.,0.));
#2500=DIRECTION('',(1.,0.,0.));
#2510=AXIS2_PLACEMENT_3D('',#2480,#2490,#2500);
#2520=CIRCLE('',#2510,1.635);
#2530=CARTESIAN_POINT('',(13.435,7.,0.));
#2540=VERTEX_POINT('',#2530);
#2550=CARTESIAN_POINT('',(10.165,7.,2.00229751660592E-16));
#2560=VERTEX_POINT('',#2550);
#2570=EDGE_CURVE('',#2540,#2560,#2520,.T.);
#2580=ORIENTED_EDGE('',*,*,#2570,.T.);
#2590=EDGE_CURVE('',#2560,#2540,#2520,.T.);
#2600=ORIENTED_EDGE('',*,*,#2590,.T.);
#2610=EDGE_LOOP('',(#2600,#2580));
#2620=FACE_BOUND('',#2610,.T.);
#2630=ADVANCED_FACE('',(#2470,#2620),#2420,.T.);
#2640=CARTESIAN_POINT('',(11.8,8.5,0.));
#2650=DIRECTION('',(0.,-1.,0.));
#2660=DIRECTION('',(1.,0.,0.));
#2670=AXIS2_PLACEMENT_3D('',#2640,#2650,#2660);
#2680=CYLINDRICAL_SURFACE('',#2670,1.635);
#2690=CARTESIAN_POINT('',(13.435,8.5,0.));
#2700=DIRECTION('',(0.,-1.,0.));
#2710=VECTOR('',#2700,1.);
#2720=LINE('',#2690,#2710);
#2730=CARTESIAN_POINT('',(13.435,10.,0.));
#2740=VERTEX_POINT('',#2730);
#2750=EDGE_CURVE('',#2740,#2540,#2720,.T.);
#2760=ORIENTED_EDGE('',*,*,#2750,.T.);
#2770=CARTESIAN_POINT('',(11.8,10.,0.));
#2780=DIRECTION('',(0.,1.,0.));
#2790=DIRECTION('',(1.,0.,0.));
#2800=AXIS2_PLACEMENT_3D('',#2770,#2780,#2790);
#2810=CIRCLE('',#2800,1.635);
#2820=CARTESIAN_POINT('',(10.165,10.,2.00229751660592E-16));
#2830=VERTEX_POINT('',#2820);
#2840=EDGE_CURVE('',#2830,#2740,#2810,.T.);
#2850=ORIENTED_EDGE('',*,*,#2840,.T.);
#2860=CARTESIAN_POINT('',(10.165,8.5,2.00229751660592E-16));
#2870=DIRECTION('',(0.,-1.,0.));
#2880=VECTOR('',#2870,1.);
#2890=LINE('',#2860,#2880);
#2900=EDGE_CURVE('',#2830,#2560,#2890,.T.);
#2910=ORIENTED_EDGE('',*,*,#2900,.F.);
#2920=ORIENTED_EDGE('',*,*,#2590,.F.);
#2930=EDGE_LOOP('',(#2920,#2910,#2850,#2760));
#2940=FACE_OUTER_BOUND('',#2930,.T.);
#2950=ADVANCED_FACE('',(#2940),#2680,.F.);
#2960=CARTESIAN_POINT('',(11.8,10.,0.));
#2970=DIRECTION('',(0.,-1.,0.));
#2980=DIRECTION('',(1.,0.,0.));
#2990=AXIS2_PLACEMENT_3D('',#2960,#2970,#2980);
#3000=CONICAL_SURFACE('',#2990,1.635,1.02974425867666);
#3010=CARTESIAN_POINT('',(13.435,10.,0.));
#3020=DIRECTION('',(0.857167300702112,-0.515038074910054,0.));
#3030=VECTOR('',#3020,1.90744560444706);
#3040=LINE('',#3010,#3030);
#3050=CARTESIAN_POINT('',(11.8,10.9824071121101,2.46519032881566E-32));
#3060=VERTEX_POINT('',#3050);
#3070=EDGE_CURVE('',#3060,#2740,#3040,.T.);
#3080=ORIENTED_EDGE('',*,*,#3070,.T.);
#3090=CARTESIAN_POINT('',(10.165,10.,2.00229751660592E-16));
#3100=DIRECTION('',(-0.857167300702112,-0.515038074910054,
1.04972719113862E-16));
#3110=VECTOR('',#3100,1.90744560444706);
#3120=LINE('',#3090,#3110);
#3130=EDGE_CURVE('',#3060,#2830,#3120,.T.);
#3140=ORIENTED_EDGE('',*,*,#3130,.F.);
#3150=ORIENTED_EDGE('',*,*,#2840,.F.);
#3160=EDGE_LOOP('',(#3150,#3140,#3080));
#3170=FACE_OUTER_BOUND('',#3160,.T.);
#3180=ADVANCED_FACE('',(#3170),#3000,.F.);
#3190=CARTESIAN_POINT('',(11.8,0.85,0.));
#3200=DIRECTION('',(0.,-1.,0.));
#3210=DIRECTION('',(-1.,0.,0.));
#3220=AXIS2_PLACEMENT_3D('',#3190,#3200,#3210);
#3230=CONICAL_SURFACE('',#3220,1.65,0.785398163397448);
#3240=CARTESIAN_POINT('',(13.45,0.85,-2.02066721859313E-16));
#3250=DIRECTION('',(0.707106781186547,-0.707106781186548,
-8.65956056235493E-17));
#3260=VECTOR('',#3250,2.33345237791561);
#3270=LINE('',#3240,#3260);
#3280=EDGE_CURVE('',#2180,#120,#3270,.T.);
#3290=ORIENTED_EDGE('',*,*,#3280,.F.);
#3300=ORIENTED_EDGE('',*,*,#170,.T.);
#3310=CARTESIAN_POINT('',(10.15,0.85,0.));
#3320=DIRECTION('',(-0.707106781186547,-0.707106781186548,0.));
#3330=VECTOR('',#3320,2.33345237791561);
#3340=LINE('',#3310,#3330);
#3350=EDGE_CURVE('',#2010,#140,#3340,.T.);
#3360=ORIENTED_EDGE('',*,*,#3350,.T.);
#3370=ORIENTED_EDGE('',*,*,#2260,.F.);
#3380=EDGE_LOOP('',(#3370,#3360,#3300,#3290));
#3390=FACE_OUTER_BOUND('',#3380,.T.);
#3400=ADVANCED_FACE('',(#3390),#3230,.F.);
#3410=CARTESIAN_POINT('',(11.8,0.85,0.));
#3420=DIRECTION('',(0.,-1.,0.));
#3430=DIRECTION('',(-1.,0.,0.));
#3440=AXIS2_PLACEMENT_3D('',#3410,#3420,#3430);
#3450=CONICAL_SURFACE('',#3440,1.65,0.785398163397448);
#3460=ORIENTED_EDGE('',*,*,#150,.T.);
#3470=ORIENTED_EDGE('',*,*,#3280,.T.);
#3480=EDGE_CURVE('',#2180,#2010,#2250,.T.);
#3490=ORIENTED_EDGE('',*,*,#3480,.F.);
#3500=ORIENTED_EDGE('',*,*,#3350,.F.);
#3510=EDGE_LOOP('',(#3500,#3490,#3470,#3460));
#3520=FACE_OUTER_BOUND('',#3510,.T.);
#3530=ADVANCED_FACE('',(#3520),#3450,.F.);
#3540=CARTESIAN_POINT('',(11.8,8.5,0.));
#3550=DIRECTION('',(0.,-1.,0.));
#3560=DIRECTION('',(1.,0.,0.));
#3570=AXIS2_PLACEMENT_3D('',#3540,#3550,#3560);
#3580=CYLINDRICAL_SURFACE('',#3570,1.635);
#3590=ORIENTED_EDGE('',*,*,#2570,.F.);
#3600=ORIENTED_EDGE('',*,*,#2900,.T.);
#3610=EDGE_CURVE('',#2740,#2830,#2810,.T.);
#3620=ORIENTED_EDGE('',*,*,#3610,.T.);
#3630=ORIENTED_EDGE('',*,*,#2750,.F.);
#3640=EDGE_LOOP('',(#3630,#3620,#3600,#3590));
#3650=FACE_OUTER_BOUND('',#3640,.T.);
#3660=ADVANCED_FACE('',(#3650),#3580,.F.);
#3670=CARTESIAN_POINT('',(11.8,2.7,0.));
#3680=DIRECTION('',(0.,1.,0.));
#3690=DIRECTION('',(1.,0.,0.));
#3700=AXIS2_PLACEMENT_3D('',#3670,#3680,#3690);
#3710=CYLINDRICAL_SURFACE('',#3700,6.);
#3720=EDGE_CURVE('',#490,#660,#730,.T.);
#3730=ORIENTED_EDGE('',*,*,#3720,.F.);
#3740=ORIENTED_EDGE('',*,*,#670,.T.);
#3750=EDGE_CURVE('',#470,#580,#560,.T.);
#3760=ORIENTED_EDGE('',*,*,#3750,.T.);
#3770=ORIENTED_EDGE('',*,*,#500,.F.);
#3780=EDGE_LOOP('',(#3770,#3760,#3740,#3730));
#3790=FACE_OUTER_BOUND('',#3780,.T.);
#3800=ADVANCED_FACE('',(#3790),#3710,.T.);
#3810=CARTESIAN_POINT('',(11.8,22.6000806697919,0.));
#3820=DIRECTION('',(0.,1.,0.));
#3830=DIRECTION('',(1.,0.,0.));
#3840=AXIS2_PLACEMENT_3D('',#3810,#3820,#3830);
#3850=CONICAL_SURFACE('',#3840,11.7232751063423,0.321222754473017);
#3860=EDGE_CURVE('',#890,#980,#1050,.T.);
#3870=ORIENTED_EDGE('',*,*,#3860,.F.);
#3880=ORIENTED_EDGE('',*,*,#990,.T.);
#3890=ORIENTED_EDGE('',*,*,#3720,.T.);
#3900=ORIENTED_EDGE('',*,*,#900,.F.);
#3910=EDGE_LOOP('',(#3900,#3890,#3880,#3870));
#3920=FACE_OUTER_BOUND('',#3910,.T.);
#3930=ADVANCED_FACE('',(#3920),#3850,.T.);
#3940=CARTESIAN_POINT('',(11.8,3.5,0.));
#3950=DIRECTION('',(0.,-1.,0.));
#3960=DIRECTION('',(1.,0.,0.));
#3970=AXIS2_PLACEMENT_3D('',#3940,#3950,#3960);
#3980=CYLINDRICAL_SURFACE('',#3970,1.65);
#3990=ORIENTED_EDGE('',*,*,#2020,.F.);
#4000=ORIENTED_EDGE('',*,*,#3480,.T.);
#4010=ORIENTED_EDGE('',*,*,#2190,.T.);
#4020=ORIENTED_EDGE('',*,*,#2440,.T.);
#4030=EDGE_LOOP('',(#4020,#4010,#4000,#3990));
#4040=FACE_OUTER_BOUND('',#4030,.T.);
#4050=ADVANCED_FACE('',(#4040),#3980,.F.);
#4060=COLOUR_RGB('',1.,0.,0.);
#4070=FILL_AREA_STYLE_COLOUR('',#4060);
#4080=FILL_AREA_STYLE('',(#4070));
#4090=SURFACE_STYLE_FILL_AREA(#4080);
#4100=SURFACE_SIDE_STYLE('',(#4090));
#4110=SURFACE_STYLE_USAGE(.BOTH.,#4100);
#4120=PRESENTATION_STYLE_ASSIGNMENT((#4110));
#4130=CARTESIAN_POINT('',(11.8,10.,0.));
#4140=DIRECTION('',(0.,-1.,0.));
#4150=DIRECTION('',(1.,0.,0.));
#4160=AXIS2_PLACEMENT_3D('',#4130,#4140,#4150);
#4170=CONICAL_SURFACE('',#4160,1.635,1.02974425867666);
#4180=ORIENTED_EDGE('',*,*,#3070,.F.);
#4190=ORIENTED_EDGE('',*,*,#3610,.F.);
#4200=ORIENTED_EDGE('',*,*,#3130,.T.);
#4210=EDGE_LOOP('',(#4200,#4190,#4180));
#4220=FACE_OUTER_BOUND('',#4210,.T.);
#4230=ADVANCED_FACE('',(#4220),#4170,.F.);
#4240=CARTESIAN_POINT('',(11.8,23.0736711803243,0.));
#4250=DIRECTION('',(0.,1.,0.));
#4260=DIRECTION('',(1.,0.,0.));
#4270=AXIS2_PLACEMENT_3D('',#4240,#4250,#4260);
#4280=TOROIDAL_SURFACE('',#4270,10.3,1.5);
#4290=EDGE_CURVE('',#1220,#1320,#1390,.T.);
#4300=ORIENTED_EDGE('',*,*,#4290,.F.);
#4310=ORIENTED_EDGE('',*,*,#1330,.F.);
#4320=ORIENTED_EDGE('',*,*,#3860,.T.);
#4330=ORIENTED_EDGE('',*,*,#1230,.T.);
#4340=EDGE_LOOP('',(#4330,#4320,#4310,#4300));
#4350=FACE_OUTER_BOUND('',#4340,.T.);
#4360=ADVANCED_FACE('',(#4350),#4280,.T.);
#4370=CARTESIAN_POINT('',(11.8,-3.5,0.));
#4380=DIRECTION('',(0.,1.,0.));
#4390=DIRECTION('',(1.,0.,0.));
#4400=AXIS2_PLACEMENT_3D('',#4370,#4380,#4390);
#4410=SPHERICAL_SURFACE('',#4400,30.);
#4420=ORIENTED_EDGE('',*,*,#4290,.T.);
#4430=ORIENTED_EDGE('',*,*,#1590,.T.);
#4440=ORIENTED_EDGE('',*,*,#1570,.T.);
#4450=EDGE_LOOP('',(#4440,#4430,#4420));
#4460=FACE_OUTER_BOUND('',#4450,.T.);
#4470=ADVANCED_FACE('',(#4460),#4410,.T.);
#4480=CARTESIAN_POINT('',(11.8,0.3,0.));
#4490=DIRECTION('',(0.,1.,0.));
#4500=DIRECTION('',(1.,0.,0.));
#4510=AXIS2_PLACEMENT_3D('',#4480,#4490,#4500);
#4520=TOROIDAL_SURFACE('',#4510,5.7,0.3);
#4530=ORIENTED_EDGE('',*,*,#3750,.F.);
#4540=ORIENTED_EDGE('',*,*,#1750,.F.);
#4550=ORIENTED_EDGE('',*,*,#300,.T.);
#4560=ORIENTED_EDGE('',*,*,#1830,.T.);
#4570=EDGE_LOOP('',(#4560,#4550,#4540,#4530));
#4580=FACE_OUTER_BOUND('',#4570,.T.);
#4590=ADVANCED_FACE('',(#4580),#4520,.T.);
#4600=CLOSED_SHELL('',(#360,#780,#1100,#1440,#1640,#1880,#2300,#2630,
#2950,#3180,#3400,#3530,#3660,#3800,#3930,#4050,#4230,#4360,#4470,#4590)
);
#4610=MANIFOLD_SOLID_BREP('',#4600);
#4620=CARTESIAN_POINT('',(0.,0.,0.));
#4630=DIRECTION('',(0.,0.,1.));
#4640=DIRECTION('',(1.,0.,0.));
#4650=AXIS2_PLACEMENT_3D('',#4620,#4630,#4640);
#4660=APPLICATION_CONTEXT(' ');
#4670=APPLICATION_PROTOCOL_DEFINITION(' ','automotive_design',1998,#4660
);
#4680=PRODUCT_CONTEXT('',#4660,'mechanical');
#4690=PRODUCT_DEFINITION_CONTEXT('part definition',#4660,'design');
#4700=PRODUCT('872-24','872-24','',(#4680));
#4710=PRODUCT_RELATED_PRODUCT_CATEGORY('part',' ',(#4700));
#4720=PRODUCT_DEFINITION_FORMATION_WITH_SPECIFIED_SOURCE('','',#4700,
.BOUGHT.);
#4730=PRODUCT_DEFINITION('',' ',#4720,#4690);
#4740=PRODUCT_DEFINITION_SHAPE('','',#4730);
#4750=DIMENSIONAL_EXPONENTS(1.,0.,0.,0.,0.,0.,0.);
#4760=DIMENSIONAL_EXPONENTS(0.,0.,0.,0.,0.,0.,0.);
#4770=DIMENSIONAL_EXPONENTS(0.,0.,0.,0.,0.,0.,0.);
#4780=(LENGTH_UNIT() NAMED_UNIT(*) SI_UNIT(.MILLI.,.METRE.));
#4790=(NAMED_UNIT(*) PLANE_ANGLE_UNIT() SI_UNIT($,.RADIAN.));
#4800=(NAMED_UNIT(*) SI_UNIT($,.STERADIAN.) SOLID_ANGLE_UNIT());
#4810=(GEOMETRIC_REPRESENTATION_CONTEXT(3) 
GLOBAL_UNCERTAINTY_ASSIGNED_CONTEXT((#4820)) 
GLOBAL_UNIT_ASSIGNED_CONTEXT((#4780,#4790,#4800)) REPRESENTATION_CONTEXT
('',''));
#4820=UNCERTAINTY_MEASURE_WITH_UNIT(LENGTH_MEASURE(1.E-6),#4780,
'distance_accuracy_value','maximum gap value');
#4830=ADVANCED_BREP_SHAPE_REPRESENTATION('',(#4650,#4610),#4810);
#4840=SHAPE_DEFINITION_REPRESENTATION(#4740,#4830);
#4850=COLOUR_RGB('',0.600000023841858,0.600000023841858,
0.600000023841858);
#4860=FILL_AREA_STYLE_COLOUR('',#4850);
#4870=FILL_AREA_STYLE('',(#4860));
#4880=SURFACE_STYLE_FILL_AREA(#4870);
#4890=SURFACE_SIDE_STYLE('',(#4880));
#4900=SURFACE_STYLE_USAGE(.BOTH.,#4890);
#4910=PRESENTATION_STYLE_ASSIGNMENT((#4900));
#4920=STYLED_ITEM('',(#4910),#4610);
#4930=OVER_RIDING_STYLED_ITEM('',(#2370),#2300,#4920);
#4940=OVER_RIDING_STYLED_ITEM('',(#4120),#4050,#4920);
#4950=DRAUGHTING_MODEL('',(#4920,#4930,#4940),#4810);
ENDSEC;
END-ISO-10303-21;
