ISO-10303-21;
HEADER;
FILE_DESCRIPTION(('Creo Elements/Direct Modeling STEP Export'),'2;1');
FILE_NAME('1403-24.stp','2017-08-30T15:43:52',(''),(''),
'Creo Elements/Direct Modeling STEP processor for AP214 (Solid Model)',
'Creo Elements/Direct Modeling 20.0  12-Nov-2016 (C) Parametric Technolo
gy GmbH','');
FILE_SCHEMA(('AUTOMOTIVE_DESIGN { 1 0 10303 214 1 1 1 1 }'));
ENDSEC;
DATA;
#10=CARTESIAN_POINT('',(-5.5,29.,0.));
#20=DIRECTION('',(0.,1.,0.));
#30=DIRECTION('',(1.,-0.,0.));
#40=AXIS2_PLACEMENT_3D('',#10,#20,#30);
#50=PLANE('',#40);
#60=CARTESIAN_POINT('',(0.,29.,0.));
#70=DIRECTION('',(0.,1.,0.));
#80=DIRECTION('',(-1.,0.,0.));
#90=AXIS2_PLACEMENT_3D('',#60,#70,#80);
#100=CIRCLE('',#90,11.);
#110=CARTESIAN_POINT('',(-11.,29.,0.));
#120=VERTEX_POINT('',#110);
#130=CARTESIAN_POINT('',(11.,29.,-1.34711147906209E-15));
#140=VERTEX_POINT('',#130);
#150=EDGE_CURVE('',#120,#140,#100,.T.);
#160=ORIENTED_EDGE('',*,*,#150,.T.);
#170=EDGE_CURVE('',#140,#120,#100,.T.);
#180=ORIENTED_EDGE('',*,*,#170,.T.);
#190=EDGE_LOOP('',(#180,#160));
#200=FACE_OUTER_BOUND('',#190,.T.);
#210=ADVANCED_FACE('',(#200),#50,.T.);
#220=CARTESIAN_POINT('',(0.,28.,0.));
#230=DIRECTION('',(0.,-1.,0.));
#240=DIRECTION('',(-1.,-0.,0.));
#250=AXIS2_PLACEMENT_3D('',#220,#230,#240);
#260=CONICAL_SURFACE('',#250,12.,0.785398163397448);
#270=CARTESIAN_POINT('',(12.,28.,-1.46957615897682E-15));
#280=DIRECTION('',(0.707106781186548,-0.707106781186548,
-8.65956056235493E-17));
#290=VECTOR('',#280,16.9705627484771);
#300=LINE('',#270,#290);
#310=CARTESIAN_POINT('',(12.,28.,-1.46957615897682E-15));
#320=VERTEX_POINT('',#310);
#330=EDGE_CURVE('',#140,#320,#300,.T.);
#340=ORIENTED_EDGE('',*,*,#330,.T.);
#350=ORIENTED_EDGE('',*,*,#170,.F.);
#360=CARTESIAN_POINT('',(-12.,28.,0.));
#370=DIRECTION('',(-0.707106781186548,-0.707106781186548,0.));
#380=VECTOR('',#370,16.9705627484771);
#390=LINE('',#360,#380);
#400=CARTESIAN_POINT('',(-12.,28.,0.));
#410=VERTEX_POINT('',#400);
#420=EDGE_CURVE('',#120,#410,#390,.T.);
#430=ORIENTED_EDGE('',*,*,#420,.F.);
#440=CARTESIAN_POINT('',(0.,28.,0.));
#450=DIRECTION('',(0.,1.,0.));
#460=DIRECTION('',(-1.,0.,0.));
#470=AXIS2_PLACEMENT_3D('',#440,#450,#460);
#480=CIRCLE('',#470,12.);
#490=EDGE_CURVE('',#320,#410,#480,.T.);
#500=ORIENTED_EDGE('',*,*,#490,.T.);
#510=EDGE_LOOP('',(#500,#430,#350,#340));
#520=FACE_OUTER_BOUND('',#510,.T.);
#530=ADVANCED_FACE('',(#520),#260,.T.);
#540=CARTESIAN_POINT('',(0.,28.,0.));
#550=DIRECTION('',(0.,1.,0.));
#560=DIRECTION('',(1.,-0.,0.));
#570=AXIS2_PLACEMENT_3D('',#540,#550,#560);
#580=CONICAL_SURFACE('',#570,12.,0.176708856070037);
#590=CARTESIAN_POINT('',(12.,28.,0.));
#600=DIRECTION('',(0.175790638483658,0.984427575508482,0.));
#610=VECTOR('',#600,68.2630207359739);
#620=LINE('',#590,#610);
#630=CARTESIAN_POINT('',(7.,0.,0.));
#640=VERTEX_POINT('',#630);
#650=EDGE_CURVE('',#640,#320,#620,.T.);
#660=ORIENTED_EDGE('',*,*,#650,.F.);
#670=ORIENTED_EDGE('',*,*,#490,.F.);
#680=CARTESIAN_POINT('',(-12.,28.,-1.46957615897682E-15));
#690=DIRECTION('',(-0.175790638483658,0.984427575508482,
-2.15281442739081E-17));
#700=VECTOR('',#690,68.2630207359739);
#710=LINE('',#680,#700);
#720=CARTESIAN_POINT('',(-7.,0.,-8.57252759403147E-16));
#730=VERTEX_POINT('',#720);
#740=EDGE_CURVE('',#730,#410,#710,.T.);
#750=ORIENTED_EDGE('',*,*,#740,.T.);
#760=CARTESIAN_POINT('',(0.,0.,0.));
#770=DIRECTION('',(0.,1.,0.));
#780=DIRECTION('',(-1.,0.,0.));
#790=AXIS2_PLACEMENT_3D('',#760,#770,#780);
#800=CIRCLE('',#790,7.);
#810=EDGE_CURVE('',#640,#730,#800,.T.);
#820=ORIENTED_EDGE('',*,*,#810,.T.);
#830=EDGE_LOOP('',(#820,#750,#670,#660));
#840=FACE_OUTER_BOUND('',#830,.T.);
#850=ADVANCED_FACE('',(#840),#580,.T.);
#860=CARTESIAN_POINT('',(-3.5,0.,0.));
#870=DIRECTION('',(0.,1.,0.));
#880=DIRECTION('',(1.,-0.,0.));
#890=AXIS2_PLACEMENT_3D('',#860,#870,#880);
#900=PLANE('',#890);
#910=CARTESIAN_POINT('',(0.,0.,0.));
#920=DIRECTION('',(0.,-1.,0.));
#930=DIRECTION('',(-1.,-0.,0.));
#940=AXIS2_PLACEMENT_3D('',#910,#920,#930);
#950=CIRCLE('',#940,2.5);
#960=CARTESIAN_POINT('',(2.5,0.,-3.06161699786838E-16));
#970=VERTEX_POINT('',#960);
#980=CARTESIAN_POINT('',(-2.5,-2.22044604925031E-16,0.));
#990=VERTEX_POINT('',#980);
#1000=EDGE_CURVE('',#970,#990,#950,.T.);
#1010=ORIENTED_EDGE('',*,*,#1000,.F.);
#1020=EDGE_CURVE('',#990,#970,#950,.T.);
#1030=ORIENTED_EDGE('',*,*,#1020,.F.);
#1040=EDGE_LOOP('',(#1030,#1010));
#1050=FACE_BOUND('',#1040,.T.);
#1060=EDGE_CURVE('',#730,#640,#800,.T.);
#1070=ORIENTED_EDGE('',*,*,#1060,.F.);
#1080=ORIENTED_EDGE('',*,*,#810,.F.);
#1090=EDGE_LOOP('',(#1080,#1070));
#1100=FACE_OUTER_BOUND('',#1090,.T.);
#1110=ADVANCED_FACE('',(#1050,#1100),#900,.F.);
#1120=CARTESIAN_POINT('',(0.,3.5,0.));
#1130=DIRECTION('',(0.,-1.,0.));
#1140=DIRECTION('',(1.,0.,0.));
#1150=AXIS2_PLACEMENT_3D('',#1120,#1130,#1140);
#1160=CYLINDRICAL_SURFACE('',#1150,1.65);
#1170=CARTESIAN_POINT('',(-1.65,3.5,2.02066721859313E-16));
#1180=DIRECTION('',(0.,-1.,0.));
#1190=VECTOR('',#1180,1.);
#1200=LINE('',#1170,#1190);
#1210=CARTESIAN_POINT('',(-1.65,7.,2.02066721859313E-16));
#1220=VERTEX_POINT('',#1210);
#1230=CARTESIAN_POINT('',(-1.65,0.85,2.02066721859313E-16));
#1240=VERTEX_POINT('',#1230);
#1250=EDGE_CURVE('',#1220,#1240,#1200,.T.);
#1260=ORIENTED_EDGE('',*,*,#1250,.T.);
#1270=CARTESIAN_POINT('',(0.,7.,0.));
#1280=DIRECTION('',(0.,1.,0.));
#1290=DIRECTION('',(1.,0.,0.));
#1300=AXIS2_PLACEMENT_3D('',#1270,#1280,#1290);
#1310=CIRCLE('',#1300,1.65);
#1320=CARTESIAN_POINT('',(1.65,7.,0.));
#1330=VERTEX_POINT('',#1320);
#1340=EDGE_CURVE('',#1330,#1220,#1310,.T.);
#1350=ORIENTED_EDGE('',*,*,#1340,.T.);
#1360=CARTESIAN_POINT('',(1.65,3.5,0.));
#1370=DIRECTION('',(0.,-1.,0.));
#1380=VECTOR('',#1370,1.);
#1390=LINE('',#1360,#1380);
#1400=CARTESIAN_POINT('',(1.65,0.850000000000001,0.));
#1410=VERTEX_POINT('',#1400);
#1420=EDGE_CURVE('',#1330,#1410,#1390,.T.);
#1430=ORIENTED_EDGE('',*,*,#1420,.F.);
#1440=CARTESIAN_POINT('',(0.,0.85,0.));
#1450=DIRECTION('',(0.,-1.,0.));
#1460=DIRECTION('',(-1.,-0.,0.));
#1470=AXIS2_PLACEMENT_3D('',#1440,#1450,#1460);
#1480=CIRCLE('',#1470,1.65);
#1490=EDGE_CURVE('',#1240,#1410,#1480,.T.);
#1500=ORIENTED_EDGE('',*,*,#1490,.T.);
#1510=EDGE_LOOP('',(#1500,#1430,#1350,#1260));
#1520=FACE_OUTER_BOUND('',#1510,.T.);
#1530=ADVANCED_FACE('M4_2041954',(#1520),#1160,.F.);
#1540=COLOUR_RGB('',1.,0.,0.);
#1550=FILL_AREA_STYLE_COLOUR('',#1540);
#1560=FILL_AREA_STYLE('',(#1550));
#1570=SURFACE_STYLE_FILL_AREA(#1560);
#1580=SURFACE_SIDE_STYLE('',(#1570));
#1590=SURFACE_STYLE_USAGE(.BOTH.,#1580);
#1600=PRESENTATION_STYLE_ASSIGNMENT((#1590));
#1610=CARTESIAN_POINT('',(1.6425,7.,0.));
#1620=DIRECTION('',(0.,-1.,0.));
#1630=DIRECTION('',(1.,0.,0.));
#1640=AXIS2_PLACEMENT_3D('',#1610,#1620,#1630);
#1650=PLANE('',#1640);
#1660=ORIENTED_EDGE('',*,*,#1340,.F.);
#1670=EDGE_CURVE('',#1220,#1330,#1310,.T.);
#1680=ORIENTED_EDGE('',*,*,#1670,.F.);
#1690=EDGE_LOOP('',(#1680,#1660));
#1700=FACE_OUTER_BOUND('',#1690,.T.);
#1710=CARTESIAN_POINT('',(0.,7.,0.));
#1720=DIRECTION('',(0.,1.,0.));
#1730=DIRECTION('',(1.,0.,0.));
#1740=AXIS2_PLACEMENT_3D('',#1710,#1720,#1730);
#1750=CIRCLE('',#1740,1.635);
#1760=CARTESIAN_POINT('',(1.635,7.,0.));
#1770=VERTEX_POINT('',#1760);
#1780=CARTESIAN_POINT('',(-1.635,7.,2.00229751660592E-16));
#1790=VERTEX_POINT('',#1780);
#1800=EDGE_CURVE('',#1770,#1790,#1750,.T.);
#1810=ORIENTED_EDGE('',*,*,#1800,.T.);
#1820=EDGE_CURVE('',#1790,#1770,#1750,.T.);
#1830=ORIENTED_EDGE('',*,*,#1820,.T.);
#1840=EDGE_LOOP('',(#1830,#1810));
#1850=FACE_BOUND('',#1840,.T.);
#1860=ADVANCED_FACE('',(#1700,#1850),#1650,.T.);
#1870=CARTESIAN_POINT('',(0.,8.,0.));
#1880=DIRECTION('',(0.,-1.,0.));
#1890=DIRECTION('',(1.,0.,0.));
#1900=AXIS2_PLACEMENT_3D('',#1870,#1880,#1890);
#1910=CYLINDRICAL_SURFACE('',#1900,1.635);
#1920=CARTESIAN_POINT('',(1.635,8.,0.));
#1930=DIRECTION('',(0.,-1.,0.));
#1940=VECTOR('',#1930,1.);
#1950=LINE('',#1920,#1940);
#1960=CARTESIAN_POINT('',(1.635,9.,0.));
#1970=VERTEX_POINT('',#1960);
#1980=EDGE_CURVE('',#1970,#1770,#1950,.T.);
#1990=ORIENTED_EDGE('',*,*,#1980,.T.);
#2000=CARTESIAN_POINT('',(0.,9.,0.));
#2010=DIRECTION('',(0.,1.,0.));
#2020=DIRECTION('',(1.,0.,0.));
#2030=AXIS2_PLACEMENT_3D('',#2000,#2010,#2020);
#2040=CIRCLE('',#2030,1.635);
#2050=CARTESIAN_POINT('',(-1.635,9.,2.00229751660592E-16));
#2060=VERTEX_POINT('',#2050);
#2070=EDGE_CURVE('',#2060,#1970,#2040,.T.);
#2080=ORIENTED_EDGE('',*,*,#2070,.T.);
#2090=CARTESIAN_POINT('',(-1.635,8.,2.00229751660592E-16));
#2100=DIRECTION('',(0.,-1.,0.));
#2110=VECTOR('',#2100,1.);
#2120=LINE('',#2090,#2110);
#2130=EDGE_CURVE('',#2060,#1790,#2120,.T.);
#2140=ORIENTED_EDGE('',*,*,#2130,.F.);
#2150=ORIENTED_EDGE('',*,*,#1820,.F.);
#2160=EDGE_LOOP('',(#2150,#2140,#2080,#1990));
#2170=FACE_OUTER_BOUND('',#2160,.T.);
#2180=ADVANCED_FACE('',(#2170),#1910,.F.);
#2190=CARTESIAN_POINT('',(0.,9.,0.));
#2200=DIRECTION('',(0.,-1.,0.));
#2210=DIRECTION('',(1.,0.,0.));
#2220=AXIS2_PLACEMENT_3D('',#2190,#2200,#2210);
#2230=CONICAL_SURFACE('',#2220,1.635,1.02974425867666);
#2240=CARTESIAN_POINT('',(1.635,9.,0.));
#2250=DIRECTION('',(0.857167300702113,-0.515038074910054,0.));
#2260=VECTOR('',#2250,1.90744560444706);
#2270=LINE('',#2240,#2260);
#2280=CARTESIAN_POINT('',(-2.22044604925031E-16,9.98240711211006,
2.46519032881566E-32));
#2290=VERTEX_POINT('',#2280);
#2300=EDGE_CURVE('',#2290,#1970,#2270,.T.);
#2310=ORIENTED_EDGE('',*,*,#2300,.T.);
#2320=CARTESIAN_POINT('',(-1.635,9.,2.00229751660592E-16));
#2330=DIRECTION('',(-0.857167300702113,-0.515038074910054,
1.04972719113862E-16));
#2340=VECTOR('',#2330,1.90744560444706);
#2350=LINE('',#2320,#2340);
#2360=EDGE_CURVE('',#2290,#2060,#2350,.T.);
#2370=ORIENTED_EDGE('',*,*,#2360,.F.);
#2380=ORIENTED_EDGE('',*,*,#2070,.F.);
#2390=EDGE_LOOP('',(#2380,#2370,#2310));
#2400=FACE_OUTER_BOUND('',#2390,.T.);
#2410=ADVANCED_FACE('',(#2400),#2230,.F.);
#2420=CARTESIAN_POINT('',(0.,0.85,0.));
#2430=DIRECTION('',(0.,-1.,0.));
#2440=DIRECTION('',(-1.,-0.,0.));
#2450=AXIS2_PLACEMENT_3D('',#2420,#2430,#2440);
#2460=CONICAL_SURFACE('',#2450,1.65,0.785398163397448);
#2470=CARTESIAN_POINT('',(1.65,0.85,-2.02066721859313E-16));
#2480=DIRECTION('',(0.707106781186548,-0.707106781186548,
-8.65956056235493E-17));
#2490=VECTOR('',#2480,2.33345237791561);
#2500=LINE('',#2470,#2490);
#2510=EDGE_CURVE('',#1410,#970,#2500,.T.);
#2520=ORIENTED_EDGE('',*,*,#2510,.F.);
#2530=ORIENTED_EDGE('',*,*,#1020,.T.);
#2540=CARTESIAN_POINT('',(-1.65,0.85,0.));
#2550=DIRECTION('',(-0.707106781186548,-0.707106781186548,0.));
#2560=VECTOR('',#2550,2.33345237791561);
#2570=LINE('',#2540,#2560);
#2580=EDGE_CURVE('',#1240,#990,#2570,.T.);
#2590=ORIENTED_EDGE('',*,*,#2580,.T.);
#2600=ORIENTED_EDGE('',*,*,#1490,.F.);
#2610=EDGE_LOOP('',(#2600,#2590,#2530,#2520));
#2620=FACE_OUTER_BOUND('',#2610,.T.);
#2630=ADVANCED_FACE('',(#2620),#2460,.F.);
#2640=CARTESIAN_POINT('',(0.,0.85,0.));
#2650=DIRECTION('',(0.,-1.,0.));
#2660=DIRECTION('',(-1.,-0.,0.));
#2670=AXIS2_PLACEMENT_3D('',#2640,#2650,#2660);
#2680=CONICAL_SURFACE('',#2670,1.65,0.785398163397448);
#2690=ORIENTED_EDGE('',*,*,#1000,.T.);
#2700=ORIENTED_EDGE('',*,*,#2510,.T.);
#2710=EDGE_CURVE('',#1410,#1240,#1480,.T.);
#2720=ORIENTED_EDGE('',*,*,#2710,.F.);
#2730=ORIENTED_EDGE('',*,*,#2580,.F.);
#2740=EDGE_LOOP('',(#2730,#2720,#2700,#2690));
#2750=FACE_OUTER_BOUND('',#2740,.T.);
#2760=ADVANCED_FACE('',(#2750),#2680,.F.);
#2770=CARTESIAN_POINT('',(0.,8.,0.));
#2780=DIRECTION('',(0.,-1.,0.));
#2790=DIRECTION('',(1.,0.,0.));
#2800=AXIS2_PLACEMENT_3D('',#2770,#2780,#2790);
#2810=CYLINDRICAL_SURFACE('',#2800,1.635);
#2820=ORIENTED_EDGE('',*,*,#1800,.F.);
#2830=ORIENTED_EDGE('',*,*,#2130,.T.);
#2840=EDGE_CURVE('',#1970,#2060,#2040,.T.);
#2850=ORIENTED_EDGE('',*,*,#2840,.T.);
#2860=ORIENTED_EDGE('',*,*,#1980,.F.);
#2870=EDGE_LOOP('',(#2860,#2850,#2830,#2820));
#2880=FACE_OUTER_BOUND('',#2870,.T.);
#2890=ADVANCED_FACE('',(#2880),#2810,.F.);
#2900=CARTESIAN_POINT('',(0.,3.5,0.));
#2910=DIRECTION('',(0.,-1.,0.));
#2920=DIRECTION('',(1.,0.,0.));
#2930=AXIS2_PLACEMENT_3D('',#2900,#2910,#2920);
#2940=CYLINDRICAL_SURFACE('',#2930,1.65);
#2950=ORIENTED_EDGE('',*,*,#1250,.F.);
#2960=ORIENTED_EDGE('',*,*,#2710,.T.);
#2970=ORIENTED_EDGE('',*,*,#1420,.T.);
#2980=ORIENTED_EDGE('',*,*,#1670,.T.);
#2990=EDGE_LOOP('',(#2980,#2970,#2960,#2950));
#3000=FACE_OUTER_BOUND('',#2990,.T.);
#3010=ADVANCED_FACE('',(#3000),#2940,.F.);
#3020=COLOUR_RGB('',1.,0.,0.);
#3030=FILL_AREA_STYLE_COLOUR('',#3020);
#3040=FILL_AREA_STYLE('',(#3030));
#3050=SURFACE_STYLE_FILL_AREA(#3040);
#3060=SURFACE_SIDE_STYLE('',(#3050));
#3070=SURFACE_STYLE_USAGE(.BOTH.,#3060);
#3080=PRESENTATION_STYLE_ASSIGNMENT((#3070));
#3090=CARTESIAN_POINT('',(0.,28.,0.));
#3100=DIRECTION('',(0.,1.,0.));
#3110=DIRECTION('',(1.,-0.,0.));
#3120=AXIS2_PLACEMENT_3D('',#3090,#3100,#3110);
#3130=CONICAL_SURFACE('',#3120,12.,0.176708856070037);
#3140=ORIENTED_EDGE('',*,*,#1060,.T.);
#3150=ORIENTED_EDGE('',*,*,#740,.F.);
#3160=EDGE_CURVE('',#410,#320,#480,.T.);
#3170=ORIENTED_EDGE('',*,*,#3160,.F.);
#3180=ORIENTED_EDGE('',*,*,#650,.T.);
#3190=EDGE_LOOP('',(#3180,#3170,#3150,#3140));
#3200=FACE_OUTER_BOUND('',#3190,.T.);
#3210=ADVANCED_FACE('',(#3200),#3130,.T.);
#3220=CARTESIAN_POINT('',(0.,28.,0.));
#3230=DIRECTION('',(0.,-1.,0.));
#3240=DIRECTION('',(-1.,-0.,0.));
#3250=AXIS2_PLACEMENT_3D('',#3220,#3230,#3240);
#3260=CONICAL_SURFACE('',#3250,12.,0.785398163397448);
#3270=ORIENTED_EDGE('',*,*,#150,.F.);
#3280=ORIENTED_EDGE('',*,*,#330,.F.);
#3290=ORIENTED_EDGE('',*,*,#3160,.T.);
#3300=ORIENTED_EDGE('',*,*,#420,.T.);
#3310=EDGE_LOOP('',(#3300,#3290,#3280,#3270));
#3320=FACE_OUTER_BOUND('',#3310,.T.);
#3330=ADVANCED_FACE('',(#3320),#3260,.T.);
#3340=CARTESIAN_POINT('',(0.,9.,0.));
#3350=DIRECTION('',(0.,-1.,0.));
#3360=DIRECTION('',(1.,0.,0.));
#3370=AXIS2_PLACEMENT_3D('',#3340,#3350,#3360);
#3380=CONICAL_SURFACE('',#3370,1.635,1.02974425867666);
#3390=ORIENTED_EDGE('',*,*,#2300,.F.);
#3400=ORIENTED_EDGE('',*,*,#2840,.F.);
#3410=ORIENTED_EDGE('',*,*,#2360,.T.);
#3420=EDGE_LOOP('',(#3410,#3400,#3390));
#3430=FACE_OUTER_BOUND('',#3420,.T.);
#3440=ADVANCED_FACE('',(#3430),#3380,.F.);
#3450=CLOSED_SHELL('',(#210,#530,#850,#1110,#1530,#1860,#2180,#2410,
#2630,#2760,#2890,#3010,#3210,#3330,#3440));
#3460=MANIFOLD_SOLID_BREP('',#3450);
#3470=CARTESIAN_POINT('',(0.,0.,0.));
#3480=DIRECTION('',(0.,0.,1.));
#3490=DIRECTION('',(1.,0.,0.));
#3500=AXIS2_PLACEMENT_3D('',#3470,#3480,#3490);
#3510=APPLICATION_CONTEXT(' ');
#3520=APPLICATION_PROTOCOL_DEFINITION(' ','automotive_design',1998,#3510
);
#3530=PRODUCT_CONTEXT('',#3510,'mechanical');
#3540=PRODUCT_DEFINITION_CONTEXT('part definition',#3510,'design');
#3550=PRODUCT('NI-4208','NI-4208','',(#3530));
#3560=PRODUCT_RELATED_PRODUCT_CATEGORY('part',' ',(#3550));
#3570=PRODUCT_DEFINITION_FORMATION_WITH_SPECIFIED_SOURCE('','',#3550,
.BOUGHT.);
#3580=PRODUCT_DEFINITION('',' ',#3570,#3540);
#3590=PRODUCT_DEFINITION_SHAPE('','',#3580);
#3600=DIMENSIONAL_EXPONENTS(1.,0.,0.,0.,0.,0.,0.);
#3610=DIMENSIONAL_EXPONENTS(0.,0.,0.,0.,0.,0.,0.);
#3620=DIMENSIONAL_EXPONENTS(0.,0.,0.,0.,0.,0.,0.);
#3630=(LENGTH_UNIT() NAMED_UNIT(*) SI_UNIT(.MILLI.,.METRE.));
#3640=(NAMED_UNIT(*) PLANE_ANGLE_UNIT() SI_UNIT($,.RADIAN.));
#3650=(NAMED_UNIT(*) SI_UNIT($,.STERADIAN.) SOLID_ANGLE_UNIT());
#3660=(GEOMETRIC_REPRESENTATION_CONTEXT(3) 
GLOBAL_UNCERTAINTY_ASSIGNED_CONTEXT((#3670)) 
GLOBAL_UNIT_ASSIGNED_CONTEXT((#3630,#3640,#3650)) REPRESENTATION_CONTEXT
('',''));
#3670=UNCERTAINTY_MEASURE_WITH_UNIT(LENGTH_MEASURE(1.E-6),#3630,
'distance_accuracy_value','maximum gap value');
#3680=ADVANCED_BREP_SHAPE_REPRESENTATION('',(#3500,#3460),#3660);
#3690=SHAPE_DEFINITION_REPRESENTATION(#3590,#3680);
#3700=COLOUR_RGB('',0.600000023841858,0.600000023841858,
0.600000023841858);
#3710=FILL_AREA_STYLE_COLOUR('',#3700);
#3720=FILL_AREA_STYLE('',(#3710));
#3730=SURFACE_STYLE_FILL_AREA(#3720);
#3740=SURFACE_SIDE_STYLE('',(#3730));
#3750=SURFACE_STYLE_USAGE(.BOTH.,#3740);
#3760=PRESENTATION_STYLE_ASSIGNMENT((#3750));
#3770=STYLED_ITEM('',(#3760),#3460);
#3780=OVER_RIDING_STYLED_ITEM('',(#1600),#1530,#3770);
#3790=OVER_RIDING_STYLED_ITEM('',(#3080),#3010,#3770);
#3800=DRAUGHTING_MODEL('',(#3770,#3780,#3790),#3660);
ENDSEC;
END-ISO-10303-21;
