ISO-10303-21;
HEADER;
FILE_DESCRIPTION(('Creo Elements/Direct Modeling STEP Export'),'2;1');
FILE_NAME('1403-20.stp','2017-08-31T13:57:21',(''),(''),
'Creo Elements/Direct Modeling STEP processor for AP214 (Solid Model)',
'Creo Elements/Direct Modeling 20.0  12-Nov-2016 (C) Parametric Technolo
gy GmbH','');
FILE_SCHEMA(('AUTOMOTIVE_DESIGN { 1 0 10303 214 1 1 1 1 }'));
ENDSEC;
DATA;
#10=CARTESIAN_POINT('',(-4.6,24.,0.));
#20=DIRECTION('',(0.,1.,0.));
#30=DIRECTION('',(1.,-0.,0.));
#40=AXIS2_PLACEMENT_3D('',#10,#20,#30);
#50=PLANE('',#40);
#60=CARTESIAN_POINT('',(0.,24.,0.));
#70=DIRECTION('',(0.,1.,0.));
#80=DIRECTION('',(-1.,0.,0.));
#90=AXIS2_PLACEMENT_3D('',#60,#70,#80);
#100=CIRCLE('',#90,9.2);
#110=CARTESIAN_POINT('',(-9.2,24.,0.));
#120=VERTEX_POINT('',#110);
#130=CARTESIAN_POINT('',(9.2,24.,-1.12667505521557E-15));
#140=VERTEX_POINT('',#130);
#150=EDGE_CURVE('',#120,#140,#100,.T.);
#160=ORIENTED_EDGE('',*,*,#150,.T.);
#170=EDGE_CURVE('',#140,#120,#100,.T.);
#180=ORIENTED_EDGE('',*,*,#170,.T.);
#190=EDGE_LOOP('',(#180,#160));
#200=FACE_OUTER_BOUND('',#190,.T.);
#210=ADVANCED_FACE('',(#200),#50,.T.);
#220=CARTESIAN_POINT('',(0.,23.2,0.));
#230=DIRECTION('',(0.,-1.,0.));
#240=DIRECTION('',(-1.,-0.,0.));
#250=AXIS2_PLACEMENT_3D('',#220,#230,#240);
#260=CONICAL_SURFACE('',#250,10.,0.785398163397448);
#270=CARTESIAN_POINT('',(10.,23.2,-1.22464679914735E-15));
#280=DIRECTION('',(0.707106781186547,-0.707106781186548,
-8.65956056235493E-17));
#290=VECTOR('',#280,14.142135623731);
#300=LINE('',#270,#290);
#310=CARTESIAN_POINT('',(10.,23.2,-1.22464679914735E-15));
#320=VERTEX_POINT('',#310);
#330=EDGE_CURVE('',#140,#320,#300,.T.);
#340=ORIENTED_EDGE('',*,*,#330,.T.);
#350=ORIENTED_EDGE('',*,*,#170,.F.);
#360=CARTESIAN_POINT('',(-10.,23.2,0.));
#370=DIRECTION('',(-0.707106781186547,-0.707106781186548,0.));
#380=VECTOR('',#370,14.142135623731);
#390=LINE('',#360,#380);
#400=CARTESIAN_POINT('',(-10.,23.2,0.));
#410=VERTEX_POINT('',#400);
#420=EDGE_CURVE('',#120,#410,#390,.T.);
#430=ORIENTED_EDGE('',*,*,#420,.F.);
#440=CARTESIAN_POINT('',(0.,23.2,0.));
#450=DIRECTION('',(0.,1.,0.));
#460=DIRECTION('',(-1.,0.,0.));
#470=AXIS2_PLACEMENT_3D('',#440,#450,#460);
#480=CIRCLE('',#470,10.);
#490=EDGE_CURVE('',#320,#410,#480,.T.);
#500=ORIENTED_EDGE('',*,*,#490,.T.);
#510=EDGE_LOOP('',(#500,#430,#350,#340));
#520=FACE_OUTER_BOUND('',#510,.T.);
#530=ADVANCED_FACE('',(#520),#260,.T.);
#540=CARTESIAN_POINT('',(0.,23.2,0.));
#550=DIRECTION('',(0.,1.,0.));
#560=DIRECTION('',(1.,-0.,0.));
#570=AXIS2_PLACEMENT_3D('',#540,#550,#560);
#580=CONICAL_SURFACE('',#570,10.,0.191586496562756);
#590=CARTESIAN_POINT('',(10.,23.2,0.));
#600=DIRECTION('',(0.190416602990412,0.981703375417235,0.));
#610=VECTOR('',#600,52.5164289403038);
#620=LINE('',#590,#610);
#630=CARTESIAN_POINT('',(5.5,3.5527136788005E-15,0.));
#640=VERTEX_POINT('',#630);
#650=EDGE_CURVE('',#640,#320,#620,.T.);
#660=ORIENTED_EDGE('',*,*,#650,.F.);
#670=ORIENTED_EDGE('',*,*,#490,.F.);
#680=CARTESIAN_POINT('',(-10.,23.2,-1.22464679914735E-15));
#690=DIRECTION('',(-0.190416602990412,0.981703375417235,
-2.3319308335672E-17));
#700=VECTOR('',#690,52.5164289403038);
#710=LINE('',#680,#700);
#720=CARTESIAN_POINT('',(-5.5,3.5527136788005E-15,-6.73555739531044E-16)
);
#730=VERTEX_POINT('',#720);
#740=EDGE_CURVE('',#730,#410,#710,.T.);
#750=ORIENTED_EDGE('',*,*,#740,.T.);
#760=CARTESIAN_POINT('',(0.,3.5527136788005E-15,0.));
#770=DIRECTION('',(0.,1.,0.));
#780=DIRECTION('',(-1.,0.,0.));
#790=AXIS2_PLACEMENT_3D('',#760,#770,#780);
#800=CIRCLE('',#790,5.5);
#810=EDGE_CURVE('',#640,#730,#800,.T.);
#820=ORIENTED_EDGE('',*,*,#810,.T.);
#830=EDGE_LOOP('',(#820,#750,#670,#660));
#840=FACE_OUTER_BOUND('',#830,.T.);
#850=ADVANCED_FACE('',(#840),#580,.T.);
#860=CARTESIAN_POINT('',(-2.75,8.88178419700125E-16,0.));
#870=DIRECTION('',(0.,1.,0.));
#880=DIRECTION('',(1.,-0.,0.));
#890=AXIS2_PLACEMENT_3D('',#860,#870,#880);
#900=PLANE('',#890);
#910=EDGE_CURVE('',#730,#640,#800,.T.);
#920=ORIENTED_EDGE('',*,*,#910,.F.);
#930=ORIENTED_EDGE('',*,*,#810,.F.);
#940=EDGE_LOOP('',(#930,#920));
#950=FACE_OUTER_BOUND('',#940,.T.);
#960=CARTESIAN_POINT('',(0.,8.88178419700125E-16,0.));
#970=DIRECTION('',(0.,-1.,0.));
#980=DIRECTION('',(1.,0.,0.));
#990=AXIS2_PLACEMENT_3D('',#960,#970,#980);
#1000=CIRCLE('',#990,1.65);
#1010=CARTESIAN_POINT('',(1.65,0.,0.));
#1020=VERTEX_POINT('',#1010);
#1030=CARTESIAN_POINT('',(-1.65,8.88178419700125E-16,
2.02066721859313E-16));
#1040=VERTEX_POINT('',#1030);
#1050=EDGE_CURVE('',#1020,#1040,#1000,.T.);
#1060=ORIENTED_EDGE('',*,*,#1050,.F.);
#1070=EDGE_CURVE('',#1040,#1020,#1000,.T.);
#1080=ORIENTED_EDGE('',*,*,#1070,.F.);
#1090=EDGE_LOOP('',(#1080,#1060));
#1100=FACE_BOUND('',#1090,.T.);
#1110=ADVANCED_FACE('',(#950,#1100),#900,.F.);
#1120=CARTESIAN_POINT('',(0.,3.5,0.));
#1130=DIRECTION('',(0.,-1.,0.));
#1140=DIRECTION('',(1.,0.,0.));
#1150=AXIS2_PLACEMENT_3D('',#1120,#1130,#1140);
#1160=CYLINDRICAL_SURFACE('',#1150,1.65);
#1170=CARTESIAN_POINT('',(-1.65,3.5,2.02066721859313E-16));
#1180=DIRECTION('',(0.,-1.,0.));
#1190=VECTOR('',#1180,1.);
#1200=LINE('',#1170,#1190);
#1210=CARTESIAN_POINT('',(-1.65,7.,2.02066721859313E-16));
#1220=VERTEX_POINT('',#1210);
#1230=EDGE_CURVE('',#1220,#1040,#1200,.T.);
#1240=ORIENTED_EDGE('',*,*,#1230,.T.);
#1250=CARTESIAN_POINT('',(0.,7.,0.));
#1260=DIRECTION('',(0.,1.,0.));
#1270=DIRECTION('',(1.,0.,0.));
#1280=AXIS2_PLACEMENT_3D('',#1250,#1260,#1270);
#1290=CIRCLE('',#1280,1.65);
#1300=CARTESIAN_POINT('',(1.65,7.,0.));
#1310=VERTEX_POINT('',#1300);
#1320=EDGE_CURVE('',#1310,#1220,#1290,.T.);
#1330=ORIENTED_EDGE('',*,*,#1320,.T.);
#1340=CARTESIAN_POINT('',(1.65,3.5,0.));
#1350=DIRECTION('',(0.,-1.,0.));
#1360=VECTOR('',#1350,1.);
#1370=LINE('',#1340,#1360);
#1380=EDGE_CURVE('',#1310,#1020,#1370,.T.);
#1390=ORIENTED_EDGE('',*,*,#1380,.F.);
#1400=ORIENTED_EDGE('',*,*,#1070,.T.);
#1410=EDGE_LOOP('',(#1400,#1390,#1330,#1240));
#1420=FACE_OUTER_BOUND('',#1410,.T.);
#1430=ADVANCED_FACE('M4_53575',(#1420),#1160,.F.);
#1440=COLOUR_RGB('',1.,0.,0.);
#1450=FILL_AREA_STYLE_COLOUR('',#1440);
#1460=FILL_AREA_STYLE('',(#1450));
#1470=SURFACE_STYLE_FILL_AREA(#1460);
#1480=SURFACE_SIDE_STYLE('',(#1470));
#1490=SURFACE_STYLE_USAGE(.BOTH.,#1480);
#1500=PRESENTATION_STYLE_ASSIGNMENT((#1490));
#1510=CARTESIAN_POINT('',(1.6425,7.,0.));
#1520=DIRECTION('',(0.,-1.,0.));
#1530=DIRECTION('',(1.,0.,0.));
#1540=AXIS2_PLACEMENT_3D('',#1510,#1520,#1530);
#1550=PLANE('',#1540);
#1560=ORIENTED_EDGE('',*,*,#1320,.F.);
#1570=EDGE_CURVE('',#1220,#1310,#1290,.T.);
#1580=ORIENTED_EDGE('',*,*,#1570,.F.);
#1590=EDGE_LOOP('',(#1580,#1560));
#1600=FACE_OUTER_BOUND('',#1590,.T.);
#1610=CARTESIAN_POINT('',(0.,7.,0.));
#1620=DIRECTION('',(0.,1.,0.));
#1630=DIRECTION('',(1.,0.,0.));
#1640=AXIS2_PLACEMENT_3D('',#1610,#1620,#1630);
#1650=CIRCLE('',#1640,1.635);
#1660=CARTESIAN_POINT('',(1.635,7.,0.));
#1670=VERTEX_POINT('',#1660);
#1680=CARTESIAN_POINT('',(-1.635,7.,2.00229751660592E-16));
#1690=VERTEX_POINT('',#1680);
#1700=EDGE_CURVE('',#1670,#1690,#1650,.T.);
#1710=ORIENTED_EDGE('',*,*,#1700,.T.);
#1720=EDGE_CURVE('',#1690,#1670,#1650,.T.);
#1730=ORIENTED_EDGE('',*,*,#1720,.T.);
#1740=EDGE_LOOP('',(#1730,#1710));
#1750=FACE_BOUND('',#1740,.T.);
#1760=ADVANCED_FACE('',(#1600,#1750),#1550,.T.);
#1770=CARTESIAN_POINT('',(0.,8.5,0.));
#1780=DIRECTION('',(0.,-1.,0.));
#1790=DIRECTION('',(1.,0.,0.));
#1800=AXIS2_PLACEMENT_3D('',#1770,#1780,#1790);
#1810=CYLINDRICAL_SURFACE('',#1800,1.635);
#1820=CARTESIAN_POINT('',(1.635,8.5,0.));
#1830=DIRECTION('',(0.,-1.,0.));
#1840=VECTOR('',#1830,1.);
#1850=LINE('',#1820,#1840);
#1860=CARTESIAN_POINT('',(1.635,10.,0.));
#1870=VERTEX_POINT('',#1860);
#1880=EDGE_CURVE('',#1870,#1670,#1850,.T.);
#1890=ORIENTED_EDGE('',*,*,#1880,.T.);
#1900=CARTESIAN_POINT('',(0.,10.,0.));
#1910=DIRECTION('',(0.,1.,0.));
#1920=DIRECTION('',(1.,0.,0.));
#1930=AXIS2_PLACEMENT_3D('',#1900,#1910,#1920);
#1940=CIRCLE('',#1930,1.635);
#1950=CARTESIAN_POINT('',(-1.635,10.,2.00229751660592E-16));
#1960=VERTEX_POINT('',#1950);
#1970=EDGE_CURVE('',#1960,#1870,#1940,.T.);
#1980=ORIENTED_EDGE('',*,*,#1970,.T.);
#1990=CARTESIAN_POINT('',(-1.635,8.5,2.00229751660592E-16));
#2000=DIRECTION('',(0.,-1.,0.));
#2010=VECTOR('',#2000,1.);
#2020=LINE('',#1990,#2010);
#2030=EDGE_CURVE('',#1960,#1690,#2020,.T.);
#2040=ORIENTED_EDGE('',*,*,#2030,.F.);
#2050=ORIENTED_EDGE('',*,*,#1720,.F.);
#2060=EDGE_LOOP('',(#2050,#2040,#1980,#1890));
#2070=FACE_OUTER_BOUND('',#2060,.T.);
#2080=ADVANCED_FACE('',(#2070),#1810,.F.);
#2090=CARTESIAN_POINT('',(0.,10.,0.));
#2100=DIRECTION('',(0.,-1.,0.));
#2110=DIRECTION('',(1.,0.,0.));
#2120=AXIS2_PLACEMENT_3D('',#2090,#2100,#2110);
#2130=CONICAL_SURFACE('',#2120,1.635,1.02974425867666);
#2140=CARTESIAN_POINT('',(1.635,10.,0.));
#2150=DIRECTION('',(0.857167300702113,-0.515038074910054,0.));
#2160=VECTOR('',#2150,1.90744560444706);
#2170=LINE('',#2140,#2160);
#2180=CARTESIAN_POINT('',(-2.22044604925031E-16,10.9824071121101,
2.46519032881566E-32));
#2190=VERTEX_POINT('',#2180);
#2200=EDGE_CURVE('',#2190,#1870,#2170,.T.);
#2210=ORIENTED_EDGE('',*,*,#2200,.T.);
#2220=CARTESIAN_POINT('',(-1.635,10.,2.00229751660592E-16));
#2230=DIRECTION('',(-0.857167300702113,-0.515038074910054,
1.04972719113862E-16));
#2240=VECTOR('',#2230,1.90744560444706);
#2250=LINE('',#2220,#2240);
#2260=EDGE_CURVE('',#2190,#1960,#2250,.T.);
#2270=ORIENTED_EDGE('',*,*,#2260,.F.);
#2280=ORIENTED_EDGE('',*,*,#1970,.F.);
#2290=EDGE_LOOP('',(#2280,#2270,#2210));
#2300=FACE_OUTER_BOUND('',#2290,.T.);
#2310=ADVANCED_FACE('',(#2300),#2130,.F.);
#2320=CARTESIAN_POINT('',(0.,3.5,0.));
#2330=DIRECTION('',(0.,-1.,0.));
#2340=DIRECTION('',(1.,0.,0.));
#2350=AXIS2_PLACEMENT_3D('',#2320,#2330,#2340);
#2360=CYLINDRICAL_SURFACE('',#2350,1.65);
#2370=ORIENTED_EDGE('',*,*,#1230,.F.);
#2380=ORIENTED_EDGE('',*,*,#1050,.T.);
#2390=ORIENTED_EDGE('',*,*,#1380,.T.);
#2400=ORIENTED_EDGE('',*,*,#1570,.T.);
#2410=EDGE_LOOP('',(#2400,#2390,#2380,#2370));
#2420=FACE_OUTER_BOUND('',#2410,.T.);
#2430=ADVANCED_FACE('',(#2420),#2360,.F.);
#2440=COLOUR_RGB('',1.,0.,0.);
#2450=FILL_AREA_STYLE_COLOUR('',#2440);
#2460=FILL_AREA_STYLE('',(#2450));
#2470=SURFACE_STYLE_FILL_AREA(#2460);
#2480=SURFACE_SIDE_STYLE('',(#2470));
#2490=SURFACE_STYLE_USAGE(.BOTH.,#2480);
#2500=PRESENTATION_STYLE_ASSIGNMENT((#2490));
#2510=CARTESIAN_POINT('',(0.,10.,0.));
#2520=DIRECTION('',(0.,-1.,0.));
#2530=DIRECTION('',(1.,0.,0.));
#2540=AXIS2_PLACEMENT_3D('',#2510,#2520,#2530);
#2550=CONICAL_SURFACE('',#2540,1.635,1.02974425867666);
#2560=ORIENTED_EDGE('',*,*,#2200,.F.);
#2570=EDGE_CURVE('',#1870,#1960,#1940,.T.);
#2580=ORIENTED_EDGE('',*,*,#2570,.F.);
#2590=ORIENTED_EDGE('',*,*,#2260,.T.);
#2600=EDGE_LOOP('',(#2590,#2580,#2560));
#2610=FACE_OUTER_BOUND('',#2600,.T.);
#2620=ADVANCED_FACE('',(#2610),#2550,.F.);
#2630=CARTESIAN_POINT('',(0.,8.5,0.));
#2640=DIRECTION('',(0.,-1.,0.));
#2650=DIRECTION('',(1.,0.,0.));
#2660=AXIS2_PLACEMENT_3D('',#2630,#2640,#2650);
#2670=CYLINDRICAL_SURFACE('',#2660,1.635);
#2680=ORIENTED_EDGE('',*,*,#1700,.F.);
#2690=ORIENTED_EDGE('',*,*,#2030,.T.);
#2700=ORIENTED_EDGE('',*,*,#2570,.T.);
#2710=ORIENTED_EDGE('',*,*,#1880,.F.);
#2720=EDGE_LOOP('',(#2710,#2700,#2690,#2680));
#2730=FACE_OUTER_BOUND('',#2720,.T.);
#2740=ADVANCED_FACE('',(#2730),#2670,.F.);
#2750=CARTESIAN_POINT('',(0.,23.2,0.));
#2760=DIRECTION('',(0.,1.,0.));
#2770=DIRECTION('',(1.,-0.,0.));
#2780=AXIS2_PLACEMENT_3D('',#2750,#2760,#2770);
#2790=CONICAL_SURFACE('',#2780,10.,0.191586496562756);
#2800=ORIENTED_EDGE('',*,*,#910,.T.);
#2810=ORIENTED_EDGE('',*,*,#740,.F.);
#2820=EDGE_CURVE('',#410,#320,#480,.T.);
#2830=ORIENTED_EDGE('',*,*,#2820,.F.);
#2840=ORIENTED_EDGE('',*,*,#650,.T.);
#2850=EDGE_LOOP('',(#2840,#2830,#2810,#2800));
#2860=FACE_OUTER_BOUND('',#2850,.T.);
#2870=ADVANCED_FACE('',(#2860),#2790,.T.);
#2880=CARTESIAN_POINT('',(0.,23.2,0.));
#2890=DIRECTION('',(0.,-1.,0.));
#2900=DIRECTION('',(-1.,-0.,0.));
#2910=AXIS2_PLACEMENT_3D('',#2880,#2890,#2900);
#2920=CONICAL_SURFACE('',#2910,10.,0.785398163397448);
#2930=ORIENTED_EDGE('',*,*,#150,.F.);
#2940=ORIENTED_EDGE('',*,*,#330,.F.);
#2950=ORIENTED_EDGE('',*,*,#2820,.T.);
#2960=ORIENTED_EDGE('',*,*,#420,.T.);
#2970=EDGE_LOOP('',(#2960,#2950,#2940,#2930));
#2980=FACE_OUTER_BOUND('',#2970,.T.);
#2990=ADVANCED_FACE('',(#2980),#2920,.T.);
#3000=CLOSED_SHELL('',(#210,#530,#850,#1110,#1430,#1760,#2080,#2310,
#2430,#2620,#2740,#2870,#2990));
#3010=MANIFOLD_SOLID_BREP('',#3000);
#3020=CARTESIAN_POINT('',(0.,0.,0.));
#3030=DIRECTION('',(0.,0.,1.));
#3040=DIRECTION('',(1.,0.,0.));
#3050=AXIS2_PLACEMENT_3D('',#3020,#3030,#3040);
#3060=APPLICATION_CONTEXT(' ');
#3070=APPLICATION_PROTOCOL_DEFINITION(' ','automotive_design',1998,#3060
);
#3080=PRODUCT_CONTEXT('',#3060,'mechanical');
#3090=PRODUCT_DEFINITION_CONTEXT('part definition',#3060,'design');
#3100=PRODUCT('NI-4207','NI-4207','',(#3080));
#3110=PRODUCT_RELATED_PRODUCT_CATEGORY('part',' ',(#3100));
#3120=PRODUCT_DEFINITION_FORMATION_WITH_SPECIFIED_SOURCE('','',#3100,
.BOUGHT.);
#3130=PRODUCT_DEFINITION('',' ',#3120,#3090);
#3140=PRODUCT_DEFINITION_SHAPE('','',#3130);
#3150=DIMENSIONAL_EXPONENTS(1.,0.,0.,0.,0.,0.,0.);
#3160=DIMENSIONAL_EXPONENTS(0.,0.,0.,0.,0.,0.,0.);
#3170=DIMENSIONAL_EXPONENTS(0.,0.,0.,0.,0.,0.,0.);
#3180=(LENGTH_UNIT() NAMED_UNIT(*) SI_UNIT(.MILLI.,.METRE.));
#3190=(NAMED_UNIT(*) PLANE_ANGLE_UNIT() SI_UNIT($,.RADIAN.));
#3200=(NAMED_UNIT(*) SI_UNIT($,.STERADIAN.) SOLID_ANGLE_UNIT());
#3210=(GEOMETRIC_REPRESENTATION_CONTEXT(3) 
GLOBAL_UNCERTAINTY_ASSIGNED_CONTEXT((#3220)) 
GLOBAL_UNIT_ASSIGNED_CONTEXT((#3180,#3190,#3200)) REPRESENTATION_CONTEXT
('',''));
#3220=UNCERTAINTY_MEASURE_WITH_UNIT(LENGTH_MEASURE(1.E-6),#3180,
'distance_accuracy_value','maximum gap value');
#3230=ADVANCED_BREP_SHAPE_REPRESENTATION('',(#3050,#3010),#3210);
#3240=SHAPE_DEFINITION_REPRESENTATION(#3140,#3230);
#3250=COLOUR_RGB('',0.600000023841858,0.600000023841858,
0.600000023841858);
#3260=FILL_AREA_STYLE_COLOUR('',#3250);
#3270=FILL_AREA_STYLE('',(#3260));
#3280=SURFACE_STYLE_FILL_AREA(#3270);
#3290=SURFACE_SIDE_STYLE('',(#3280));
#3300=SURFACE_STYLE_USAGE(.BOTH.,#3290);
#3310=PRESENTATION_STYLE_ASSIGNMENT((#3300));
#3320=STYLED_ITEM('',(#3310),#3010);
#3330=OVER_RIDING_STYLED_ITEM('',(#1500),#1430,#3320);
#3340=OVER_RIDING_STYLED_ITEM('',(#2500),#2430,#3320);
#3350=DRAUGHTING_MODEL('',(#3320,#3330,#3340),#3210);
ENDSEC;
END-ISO-10303-21;
