ISO-10303-21;
HEADER;
FILE_DESCRIPTION(('Creo Elements/Direct Modeling STEP Export'),'2;1');
FILE_NAME('2490-42.stp','2020-02-14T 9:35:44',(''),(''),
'Creo Elements/Direct Modeling STEP processor for AP214 (Solid Model)',
'Creo Elements/Direct Modeling 20.0  12-Nov-2016 (C) Parametric Technolo
gy GmbH','');
FILE_SCHEMA(('AUTOMOTIVE_DESIGN { 1 0 10303 214 1 1 1 1 }'));
ENDSEC;
DATA;
#10=CARTESIAN_POINT('',(95.,0.,0.2000024));
#20=DIRECTION('',(0.,0.,-1.));
#30=DIRECTION('',(1.,0.,0.));
#40=AXIS2_PLACEMENT_3D('',#10,#20,#30);
#50=CYLINDRICAL_SURFACE('',#40,2.1);
#60=CARTESIAN_POINT('',(97.1,0.,0.2000024));
#70=DIRECTION('',(0.,0.,-1.));
#80=VECTOR('',#70,1.);
#90=LINE('',#60,#80);
#100=CARTESIAN_POINT('',(97.1,0.,0.));
#110=VERTEX_POINT('',#100);
#120=CARTESIAN_POINT('',(97.1,0.,-2.));
#130=VERTEX_POINT('',#120);
#140=EDGE_CURVE('',#110,#130,#90,.T.);
#150=ORIENTED_EDGE('',*,*,#140,.F.);
#160=CARTESIAN_POINT('',(95.,0.,-2.));
#170=DIRECTION('',(0.,0.,-1.));
#180=DIRECTION('',(1.,0.,0.));
#190=AXIS2_PLACEMENT_3D('',#160,#170,#180);
#200=CIRCLE('',#190,2.1);
#210=CARTESIAN_POINT('',(92.9,-2.57175827820944E-16,-2.));
#220=VERTEX_POINT('',#210);
#230=EDGE_CURVE('',#220,#130,#200,.T.);
#240=ORIENTED_EDGE('',*,*,#230,.T.);
#250=CARTESIAN_POINT('',(92.9,-2.57175827820944E-16,0.2000024));
#260=DIRECTION('',(0.,0.,-1.));
#270=VECTOR('',#260,1.);
#280=LINE('',#250,#270);
#290=CARTESIAN_POINT('',(92.9,-2.57175827820944E-16,0.));
#300=VERTEX_POINT('',#290);
#310=EDGE_CURVE('',#300,#220,#280,.T.);
#320=ORIENTED_EDGE('',*,*,#310,.T.);
#330=CARTESIAN_POINT('',(95.,0.,0.));
#340=DIRECTION('',(0.,0.,-1.));
#350=DIRECTION('',(1.,0.,0.));
#360=AXIS2_PLACEMENT_3D('',#330,#340,#350);
#370=CIRCLE('',#360,2.1);
#380=EDGE_CURVE('',#300,#110,#370,.T.);
#390=ORIENTED_EDGE('',*,*,#380,.F.);
#400=EDGE_LOOP('',(#390,#320,#240,#150));
#410=FACE_OUTER_BOUND('',#400,.T.);
#420=ADVANCED_FACE('',(#410),#50,.F.);
#430=CARTESIAN_POINT('',(95.,-3.75,0.));
#440=DIRECTION('',(0.,0.,-1.));
#450=DIRECTION('',(1.,0.,0.));
#460=AXIS2_PLACEMENT_3D('',#430,#440,#450);
#470=PLANE('',#460);
#480=EDGE_CURVE('',#110,#300,#370,.T.);
#490=ORIENTED_EDGE('',*,*,#480,.T.);
#500=ORIENTED_EDGE('',*,*,#380,.T.);
#510=EDGE_LOOP('',(#500,#490));
#520=FACE_BOUND('',#510,.T.);
#530=CARTESIAN_POINT('',(95.,0.,0.));
#540=DIRECTION('',(0.,0.,-1.));
#550=DIRECTION('',(1.,0.,0.));
#560=AXIS2_PLACEMENT_3D('',#530,#540,#550);
#570=CIRCLE('',#560,20.7);
#580=CARTESIAN_POINT('',(115.7,0.,0.));
#590=VERTEX_POINT('',#580);
#600=CARTESIAN_POINT('',(74.3,0.,0.));
#610=VERTEX_POINT('',#600);
#620=EDGE_CURVE('',#590,#610,#570,.T.);
#630=ORIENTED_EDGE('',*,*,#620,.F.);
#640=EDGE_CURVE('',#610,#590,#570,.T.);
#650=ORIENTED_EDGE('',*,*,#640,.F.);
#660=EDGE_LOOP('',(#650,#630));
#670=FACE_OUTER_BOUND('',#660,.T.);
#680=ADVANCED_FACE('',(#520,#670),#470,.F.);
#690=CARTESIAN_POINT('',(95.,-3.75,-2.));
#700=DIRECTION('',(0.,0.,-1.));
#710=DIRECTION('',(1.,0.,0.));
#720=AXIS2_PLACEMENT_3D('',#690,#700,#710);
#730=PLANE('',#720);
#740=EDGE_CURVE('',#130,#220,#200,.T.);
#750=ORIENTED_EDGE('',*,*,#740,.F.);
#760=ORIENTED_EDGE('',*,*,#230,.F.);
#770=EDGE_LOOP('',(#760,#750));
#780=FACE_BOUND('',#770,.T.);
#790=CARTESIAN_POINT('',(95.,0.,-2.));
#800=DIRECTION('',(0.,0.,-1.));
#810=DIRECTION('',(1.,0.,0.));
#820=AXIS2_PLACEMENT_3D('',#790,#800,#810);
#830=CIRCLE('',#820,20.7);
#840=CARTESIAN_POINT('',(115.7,0.,-2.));
#850=VERTEX_POINT('',#840);
#860=CARTESIAN_POINT('',(74.3,0.,-2.));
#870=VERTEX_POINT('',#860);
#880=EDGE_CURVE('',#850,#870,#830,.T.);
#890=ORIENTED_EDGE('',*,*,#880,.T.);
#900=EDGE_CURVE('',#870,#850,#830,.T.);
#910=ORIENTED_EDGE('',*,*,#900,.T.);
#920=EDGE_LOOP('',(#910,#890));
#930=FACE_OUTER_BOUND('',#920,.T.);
#940=ADVANCED_FACE('',(#780,#930),#730,.T.);
#950=CARTESIAN_POINT('',(95.,0.,0.));
#960=DIRECTION('',(0.,0.,-1.));
#970=DIRECTION('',(1.,0.,0.));
#980=AXIS2_PLACEMENT_3D('',#950,#960,#970);
#990=CYLINDRICAL_SURFACE('',#980,21.);
#1000=CARTESIAN_POINT('',(116.,0.,0.));
#1010=DIRECTION('',(0.,0.,-1.));
#1020=VECTOR('',#1010,1.);
#1030=LINE('',#1000,#1020);
#1040=CARTESIAN_POINT('',(116.,0.,-0.3));
#1050=VERTEX_POINT('',#1040);
#1060=CARTESIAN_POINT('',(116.,0.,-1.7));
#1070=VERTEX_POINT('',#1060);
#1080=EDGE_CURVE('',#1050,#1070,#1030,.T.);
#1090=ORIENTED_EDGE('',*,*,#1080,.T.);
#1100=CARTESIAN_POINT('',(95.,0.,-0.3));
#1110=DIRECTION('',(0.,0.,-1.));
#1120=DIRECTION('',(1.,0.,0.));
#1130=AXIS2_PLACEMENT_3D('',#1100,#1110,#1120);
#1140=CIRCLE('',#1130,21.);
#1150=CARTESIAN_POINT('',(74.,0.,-0.3));
#1160=VERTEX_POINT('',#1150);
#1170=EDGE_CURVE('',#1160,#1050,#1140,.T.);
#1180=ORIENTED_EDGE('',*,*,#1170,.T.);
#1190=CARTESIAN_POINT('',(74.,-2.57175827820944E-15,0.));
#1200=DIRECTION('',(0.,0.,-1.));
#1210=VECTOR('',#1200,1.);
#1220=LINE('',#1190,#1210);
#1230=CARTESIAN_POINT('',(74.,0.,-1.7));
#1240=VERTEX_POINT('',#1230);
#1250=EDGE_CURVE('',#1160,#1240,#1220,.T.);
#1260=ORIENTED_EDGE('',*,*,#1250,.F.);
#1270=CARTESIAN_POINT('',(95.,0.,-1.7));
#1280=DIRECTION('',(0.,0.,-1.));
#1290=DIRECTION('',(1.,0.,0.));
#1300=AXIS2_PLACEMENT_3D('',#1270,#1280,#1290);
#1310=CIRCLE('',#1300,21.);
#1320=EDGE_CURVE('',#1240,#1070,#1310,.T.);
#1330=ORIENTED_EDGE('',*,*,#1320,.F.);
#1340=EDGE_LOOP('',(#1330,#1260,#1180,#1090));
#1350=FACE_OUTER_BOUND('',#1340,.T.);
#1360=ADVANCED_FACE('',(#1350),#990,.T.);
#1370=CARTESIAN_POINT('',(95.,0.,-0.3));
#1380=DIRECTION('',(0.,0.,-1.));
#1390=DIRECTION('',(1.,0.,0.));
#1400=AXIS2_PLACEMENT_3D('',#1370,#1380,#1390);
#1410=TOROIDAL_SURFACE('',#1400,20.7,0.3);
#1420=CARTESIAN_POINT('',(74.3,0.,-0.3));
#1430=DIRECTION('',(0.,1.,0.));
#1440=DIRECTION('',(-1.,0.,0.));
#1450=AXIS2_PLACEMENT_3D('',#1420,#1430,#1440);
#1460=CIRCLE('',#1450,0.3);
#1470=EDGE_CURVE('',#1160,#610,#1460,.T.);
#1480=ORIENTED_EDGE('',*,*,#1470,.T.);
#1490=ORIENTED_EDGE('',*,*,#1170,.F.);
#1500=CARTESIAN_POINT('',(115.7,0.,-0.3));
#1510=DIRECTION('',(0.,-1.,0.));
#1520=DIRECTION('',(1.,0.,0.));
#1530=AXIS2_PLACEMENT_3D('',#1500,#1510,#1520);
#1540=CIRCLE('',#1530,0.3);
#1550=EDGE_CURVE('',#1050,#590,#1540,.T.);
#1560=ORIENTED_EDGE('',*,*,#1550,.F.);
#1570=ORIENTED_EDGE('',*,*,#640,.T.);
#1580=EDGE_LOOP('',(#1570,#1560,#1490,#1480));
#1590=FACE_OUTER_BOUND('',#1580,.T.);
#1600=ADVANCED_FACE('',(#1590),#1410,.T.);
#1610=CARTESIAN_POINT('',(95.,0.,-1.7));
#1620=DIRECTION('',(0.,0.,-1.));
#1630=DIRECTION('',(1.,0.,0.));
#1640=AXIS2_PLACEMENT_3D('',#1610,#1620,#1630);
#1650=TOROIDAL_SURFACE('',#1640,20.7,0.3);
#1660=CARTESIAN_POINT('',(115.7,0.,-1.7));
#1670=DIRECTION('',(0.,-1.,0.));
#1680=DIRECTION('',(1.,0.,0.));
#1690=AXIS2_PLACEMENT_3D('',#1660,#1670,#1680);
#1700=CIRCLE('',#1690,0.3);
#1710=EDGE_CURVE('',#850,#1070,#1700,.T.);
#1720=ORIENTED_EDGE('',*,*,#1710,.F.);
#1730=ORIENTED_EDGE('',*,*,#1320,.T.);
#1740=CARTESIAN_POINT('',(74.3,0.,-1.7));
#1750=DIRECTION('',(0.,1.,0.));
#1760=DIRECTION('',(-1.,0.,0.));
#1770=AXIS2_PLACEMENT_3D('',#1740,#1750,#1760);
#1780=CIRCLE('',#1770,0.3);
#1790=EDGE_CURVE('',#870,#1240,#1780,.T.);
#1800=ORIENTED_EDGE('',*,*,#1790,.T.);
#1810=ORIENTED_EDGE('',*,*,#900,.F.);
#1820=EDGE_LOOP('',(#1810,#1800,#1730,#1720));
#1830=FACE_OUTER_BOUND('',#1820,.T.);
#1840=ADVANCED_FACE('',(#1830),#1650,.T.);
#1850=CARTESIAN_POINT('',(95.,0.,0.2000024));
#1860=DIRECTION('',(0.,0.,-1.));
#1870=DIRECTION('',(1.,0.,0.));
#1880=AXIS2_PLACEMENT_3D('',#1850,#1860,#1870);
#1890=CYLINDRICAL_SURFACE('',#1880,2.1);
#1900=ORIENTED_EDGE('',*,*,#480,.F.);
#1910=ORIENTED_EDGE('',*,*,#310,.F.);
#1920=ORIENTED_EDGE('',*,*,#740,.T.);
#1930=ORIENTED_EDGE('',*,*,#140,.T.);
#1940=EDGE_LOOP('',(#1930,#1920,#1910,#1900));
#1950=FACE_OUTER_BOUND('',#1940,.T.);
#1960=ADVANCED_FACE('',(#1950),#1890,.F.);
#1970=CARTESIAN_POINT('',(95.,0.,0.));
#1980=DIRECTION('',(0.,0.,-1.));
#1990=DIRECTION('',(1.,0.,0.));
#2000=AXIS2_PLACEMENT_3D('',#1970,#1980,#1990);
#2010=CYLINDRICAL_SURFACE('',#2000,21.);
#2020=EDGE_CURVE('',#1070,#1240,#1310,.T.);
#2030=ORIENTED_EDGE('',*,*,#2020,.F.);
#2040=ORIENTED_EDGE('',*,*,#1250,.T.);
#2050=EDGE_CURVE('',#1050,#1160,#1140,.T.);
#2060=ORIENTED_EDGE('',*,*,#2050,.T.);
#2070=ORIENTED_EDGE('',*,*,#1080,.F.);
#2080=EDGE_LOOP('',(#2070,#2060,#2040,#2030));
#2090=FACE_OUTER_BOUND('',#2080,.T.);
#2100=ADVANCED_FACE('',(#2090),#2010,.T.);
#2110=CARTESIAN_POINT('',(95.,0.,-1.7));
#2120=DIRECTION('',(0.,0.,-1.));
#2130=DIRECTION('',(1.,0.,0.));
#2140=AXIS2_PLACEMENT_3D('',#2110,#2120,#2130);
#2150=TOROIDAL_SURFACE('',#2140,20.7,0.3);
#2160=ORIENTED_EDGE('',*,*,#880,.F.);
#2170=ORIENTED_EDGE('',*,*,#1790,.F.);
#2180=ORIENTED_EDGE('',*,*,#2020,.T.);
#2190=ORIENTED_EDGE('',*,*,#1710,.T.);
#2200=EDGE_LOOP('',(#2190,#2180,#2170,#2160));
#2210=FACE_OUTER_BOUND('',#2200,.T.);
#2220=ADVANCED_FACE('',(#2210),#2150,.T.);
#2230=CARTESIAN_POINT('',(95.,0.,-0.3));
#2240=DIRECTION('',(0.,0.,-1.));
#2250=DIRECTION('',(1.,0.,0.));
#2260=AXIS2_PLACEMENT_3D('',#2230,#2240,#2250);
#2270=TOROIDAL_SURFACE('',#2260,20.7,0.3);
#2280=ORIENTED_EDGE('',*,*,#2050,.F.);
#2290=ORIENTED_EDGE('',*,*,#1470,.F.);
#2300=ORIENTED_EDGE('',*,*,#620,.T.);
#2310=ORIENTED_EDGE('',*,*,#1550,.T.);
#2320=EDGE_LOOP('',(#2310,#2300,#2290,#2280));
#2330=FACE_OUTER_BOUND('',#2320,.T.);
#2340=ADVANCED_FACE('',(#2330),#2270,.T.);
#2350=CLOSED_SHELL('',(#420,#680,#940,#1360,#1600,#1840,#1960,#2100,
#2220,#2340));
#2360=MANIFOLD_SOLID_BREP('',#2350);
#2370=CARTESIAN_POINT('',(0.,0.,0.));
#2380=DIRECTION('',(0.,0.,1.));
#2390=DIRECTION('',(1.,0.,0.));
#2400=AXIS2_PLACEMENT_3D('',#2370,#2380,#2390);
#2410=APPLICATION_CONTEXT(' ');
#2420=APPLICATION_PROTOCOL_DEFINITION(' ','automotive_design',1998,#2410
);
#2430=PRODUCT_CONTEXT('',#2410,'mechanical');
#2440=PRODUCT_DEFINITION_CONTEXT('part definition',#2410,'design');
#2450=PRODUCT('DIV-10928','DIV-10928','',(#2430));
#2460=PRODUCT_RELATED_PRODUCT_CATEGORY('part',' ',(#2450));
#2470=PRODUCT_DEFINITION_FORMATION_WITH_SPECIFIED_SOURCE('','',#2450,
.BOUGHT.);
#2480=PRODUCT_DEFINITION('',' ',#2470,#2440);
#2490=PRODUCT_DEFINITION_SHAPE('','',#2480);
#2500=DIMENSIONAL_EXPONENTS(1.,0.,0.,0.,0.,0.,0.);
#2510=DIMENSIONAL_EXPONENTS(0.,0.,0.,0.,0.,0.,0.);
#2520=DIMENSIONAL_EXPONENTS(0.,0.,0.,0.,0.,0.,0.);
#2530=(LENGTH_UNIT() NAMED_UNIT(*) SI_UNIT(.MILLI.,.METRE.));
#2540=(NAMED_UNIT(*) PLANE_ANGLE_UNIT() SI_UNIT($,.RADIAN.));
#2550=(NAMED_UNIT(*) SI_UNIT($,.STERADIAN.) SOLID_ANGLE_UNIT());
#2560=(GEOMETRIC_REPRESENTATION_CONTEXT(3) 
GLOBAL_UNCERTAINTY_ASSIGNED_CONTEXT((#2570)) 
GLOBAL_UNIT_ASSIGNED_CONTEXT((#2530,#2540,#2550)) REPRESENTATION_CONTEXT
('',''));
#2570=UNCERTAINTY_MEASURE_WITH_UNIT(LENGTH_MEASURE(1.E-6),#2530,
'distance_accuracy_value','maximum gap value');
#2580=ADVANCED_BREP_SHAPE_REPRESENTATION('',(#2400,#2360),#2560);
#2590=SHAPE_DEFINITION_REPRESENTATION(#2490,#2580);
#2600=COLOUR_RGB('',0.600000023841858,0.600000023841858,
0.600000023841858);
#2610=FILL_AREA_STYLE_COLOUR('',#2600);
#2620=FILL_AREA_STYLE('',(#2610));
#2630=SURFACE_STYLE_FILL_AREA(#2620);
#2640=SURFACE_SIDE_STYLE('',(#2630));
#2650=SURFACE_STYLE_USAGE(.BOTH.,#2640);
#2660=PRESENTATION_STYLE_ASSIGNMENT((#2650));
#2670=STYLED_ITEM('',(#2660),#2360);
#2680=DRAUGHTING_MODEL('',(#2670),#2560);
#2690=CARTESIAN_POINT('',(-54.,0.,0.));
#2700=DIRECTION('',(0.,0.,1.));
#2710=DIRECTION('',(1.,0.,0.));
#2720=AXIS2_PLACEMENT_3D('',#2690,#2700,#2710);
#2730=ITEM_DEFINED_TRANSFORMATION('DIV-10928','',#2400,#2720);
#2740=APPLICATION_CONTEXT(' ');
#2750=APPLICATION_PROTOCOL_DEFINITION(' ','automotive_design',1998,#2740
);
#2760=PRODUCT_CONTEXT('',#2740,'mechanical');
#2770=PRODUCT_DEFINITION_CONTEXT('part definition',#2740,'design');
#2780=PRODUCT('DIV-10928','DIV-10928','',(#2760));
#2790=PRODUCT_RELATED_PRODUCT_CATEGORY('part',' ',(#2780));
#2800=PRODUCT_DEFINITION_FORMATION_WITH_SPECIFIED_SOURCE('','',#2780,
.BOUGHT.);
#2810=PRODUCT_DEFINITION('',' ',#2800,#2770);
#2820=PRODUCT_DEFINITION_SHAPE('','',#2810);
#2830=DIMENSIONAL_EXPONENTS(1.,0.,0.,0.,0.,0.,0.);
#2840=DIMENSIONAL_EXPONENTS(0.,0.,0.,0.,0.,0.,0.);
#2850=DIMENSIONAL_EXPONENTS(0.,0.,0.,0.,0.,0.,0.);
#2860=(LENGTH_UNIT() NAMED_UNIT(*) SI_UNIT(.MILLI.,.METRE.));
#2870=(NAMED_UNIT(*) PLANE_ANGLE_UNIT() SI_UNIT($,.RADIAN.));
#2880=(NAMED_UNIT(*) SI_UNIT($,.STERADIAN.) SOLID_ANGLE_UNIT());
#2890=(GEOMETRIC_REPRESENTATION_CONTEXT(3) 
GLOBAL_UNCERTAINTY_ASSIGNED_CONTEXT((#2900)) 
GLOBAL_UNIT_ASSIGNED_CONTEXT((#2860,#2870,#2880)) REPRESENTATION_CONTEXT
('',''));
#2900=UNCERTAINTY_MEASURE_WITH_UNIT(LENGTH_MEASURE(1.E-6),#2860,
'distance_accuracy_value','maximum gap value');
#2910=SHAPE_REPRESENTATION('',(#2400,#2720),#2890);
#2920=SHAPE_DEFINITION_REPRESENTATION(#2820,#2910);
#2930=(REPRESENTATION_RELATIONSHIP('','',#2580,#2910) 
REPRESENTATION_RELATIONSHIP_WITH_TRANSFORMATION(#2730) 
SHAPE_REPRESENTATION_RELATIONSHIP());
#2940=NEXT_ASSEMBLY_USAGE_OCCURRENCE('1','','DIV-10928',#2810,#2480,'');
#2950=PRODUCT_DEFINITION_SHAPE('','',#2940);
#2960=CONTEXT_DEPENDENT_SHAPE_REPRESENTATION(#2930,#2950);
ENDSEC;
END-ISO-10303-21;
