ISO-10303-21;
HEADER;
FILE_DESCRIPTION(('Creo Elements/Direct Modeling STEP Export'),'2;1');
FILE_NAME('2490-30.stp','2020-02-14T 9:21:50',(''),(''),
'Creo Elements/Direct Modeling STEP processor for AP214 (Solid Model)',
'Creo Elements/Direct Modeling 20.0  12-Nov-2016 (C) Parametric Technolo
gy GmbH','');
FILE_SCHEMA(('AUTOMOTIVE_DESIGN { 1 0 10303 214 1 1 1 1 }'));
ENDSEC;
DATA;
#10=CARTESIAN_POINT('',(95.,0.,0.2000024));
#20=DIRECTION('',(0.,0.,-1.));
#30=DIRECTION('',(1.,0.,0.));
#40=AXIS2_PLACEMENT_3D('',#10,#20,#30);
#50=CYLINDRICAL_SURFACE('',#40,2.1);
#60=CARTESIAN_POINT('',(97.1,0.,0.2000024));
#70=DIRECTION('',(0.,0.,-1.));
#80=VECTOR('',#70,1.);
#90=LINE('',#60,#80);
#100=CARTESIAN_POINT('',(97.1,0.,0.));
#110=VERTEX_POINT('',#100);
#120=CARTESIAN_POINT('',(97.1,0.,-2.));
#130=VERTEX_POINT('',#120);
#140=EDGE_CURVE('',#110,#130,#90,.T.);
#150=ORIENTED_EDGE('',*,*,#140,.F.);
#160=CARTESIAN_POINT('',(95.,0.,-2.));
#170=DIRECTION('',(0.,0.,-1.));
#180=DIRECTION('',(1.,0.,0.));
#190=AXIS2_PLACEMENT_3D('',#160,#170,#180);
#200=CIRCLE('',#190,2.1);
#210=CARTESIAN_POINT('',(92.9,-2.57175827820944E-16,-2.));
#220=VERTEX_POINT('',#210);
#230=EDGE_CURVE('',#220,#130,#200,.T.);
#240=ORIENTED_EDGE('',*,*,#230,.T.);
#250=CARTESIAN_POINT('',(92.9,-2.57175827820944E-16,0.2000024));
#260=DIRECTION('',(0.,0.,-1.));
#270=VECTOR('',#260,1.);
#280=LINE('',#250,#270);
#290=CARTESIAN_POINT('',(92.9,-2.57175827820944E-16,0.));
#300=VERTEX_POINT('',#290);
#310=EDGE_CURVE('',#300,#220,#280,.T.);
#320=ORIENTED_EDGE('',*,*,#310,.T.);
#330=CARTESIAN_POINT('',(95.,0.,0.));
#340=DIRECTION('',(0.,0.,-1.));
#350=DIRECTION('',(1.,0.,0.));
#360=AXIS2_PLACEMENT_3D('',#330,#340,#350);
#370=CIRCLE('',#360,2.1);
#380=EDGE_CURVE('',#300,#110,#370,.T.);
#390=ORIENTED_EDGE('',*,*,#380,.F.);
#400=EDGE_LOOP('',(#390,#320,#240,#150));
#410=FACE_OUTER_BOUND('',#400,.T.);
#420=ADVANCED_FACE('',(#410),#50,.F.);
#430=CARTESIAN_POINT('',(95.,-3.75,0.));
#440=DIRECTION('',(0.,0.,-1.));
#450=DIRECTION('',(1.,0.,0.));
#460=AXIS2_PLACEMENT_3D('',#430,#440,#450);
#470=PLANE('',#460);
#480=CARTESIAN_POINT('',(95.,0.,0.));
#490=DIRECTION('',(0.,0.,-1.));
#500=DIRECTION('',(1.,0.,0.));
#510=AXIS2_PLACEMENT_3D('',#480,#490,#500);
#520=CIRCLE('',#510,14.7);
#530=CARTESIAN_POINT('',(109.7,0.,0.));
#540=VERTEX_POINT('',#530);
#550=CARTESIAN_POINT('',(80.3,0.,0.));
#560=VERTEX_POINT('',#550);
#570=EDGE_CURVE('',#540,#560,#520,.T.);
#580=ORIENTED_EDGE('',*,*,#570,.F.);
#590=EDGE_CURVE('',#560,#540,#520,.T.);
#600=ORIENTED_EDGE('',*,*,#590,.F.);
#610=EDGE_LOOP('',(#600,#580));
#620=FACE_OUTER_BOUND('',#610,.T.);
#630=EDGE_CURVE('',#110,#300,#370,.T.);
#640=ORIENTED_EDGE('',*,*,#630,.T.);
#650=ORIENTED_EDGE('',*,*,#380,.T.);
#660=EDGE_LOOP('',(#650,#640));
#670=FACE_BOUND('',#660,.T.);
#680=ADVANCED_FACE('',(#620,#670),#470,.F.);
#690=CARTESIAN_POINT('',(95.,0.,-0.3));
#700=DIRECTION('',(0.,0.,-1.));
#710=DIRECTION('',(1.,0.,0.));
#720=AXIS2_PLACEMENT_3D('',#690,#700,#710);
#730=TOROIDAL_SURFACE('',#720,14.7,0.3);
#740=CARTESIAN_POINT('',(80.3,0.,-0.3));
#750=DIRECTION('',(0.,1.,0.));
#760=DIRECTION('',(-1.,0.,0.));
#770=AXIS2_PLACEMENT_3D('',#740,#750,#760);
#780=CIRCLE('',#770,0.3);
#790=CARTESIAN_POINT('',(80.,0.,-0.3));
#800=VERTEX_POINT('',#790);
#810=EDGE_CURVE('',#800,#560,#780,.T.);
#820=ORIENTED_EDGE('',*,*,#810,.T.);
#830=CARTESIAN_POINT('',(95.,0.,-0.3));
#840=DIRECTION('',(0.,0.,-1.));
#850=DIRECTION('',(1.,0.,0.));
#860=AXIS2_PLACEMENT_3D('',#830,#840,#850);
#870=CIRCLE('',#860,15.);
#880=CARTESIAN_POINT('',(110.,0.,-0.3));
#890=VERTEX_POINT('',#880);
#900=EDGE_CURVE('',#800,#890,#870,.T.);
#910=ORIENTED_EDGE('',*,*,#900,.F.);
#920=CARTESIAN_POINT('',(109.7,0.,-0.3));
#930=DIRECTION('',(0.,-1.,0.));
#940=DIRECTION('',(1.,0.,0.));
#950=AXIS2_PLACEMENT_3D('',#920,#930,#940);
#960=CIRCLE('',#950,0.3);
#970=EDGE_CURVE('',#890,#540,#960,.T.);
#980=ORIENTED_EDGE('',*,*,#970,.F.);
#990=ORIENTED_EDGE('',*,*,#590,.T.);
#1000=EDGE_LOOP('',(#990,#980,#910,#820));
#1010=FACE_OUTER_BOUND('',#1000,.T.);
#1020=ADVANCED_FACE('',(#1010),#730,.T.);
#1030=CARTESIAN_POINT('',(95.,0.,0.));
#1040=DIRECTION('',(0.,0.,-1.));
#1050=DIRECTION('',(1.,0.,0.));
#1060=AXIS2_PLACEMENT_3D('',#1030,#1040,#1050);
#1070=CYLINDRICAL_SURFACE('',#1060,15.);
#1080=CARTESIAN_POINT('',(110.,0.,0.));
#1090=DIRECTION('',(0.,0.,-1.));
#1100=VECTOR('',#1090,1.);
#1110=LINE('',#1080,#1100);
#1120=CARTESIAN_POINT('',(110.,0.,-1.7));
#1130=VERTEX_POINT('',#1120);
#1140=EDGE_CURVE('',#890,#1130,#1110,.T.);
#1150=ORIENTED_EDGE('',*,*,#1140,.T.);
#1160=ORIENTED_EDGE('',*,*,#900,.T.);
#1170=CARTESIAN_POINT('',(80.,-1.83697019872103E-15,0.));
#1180=DIRECTION('',(0.,0.,-1.));
#1190=VECTOR('',#1180,1.);
#1200=LINE('',#1170,#1190);
#1210=CARTESIAN_POINT('',(80.,0.,-1.7));
#1220=VERTEX_POINT('',#1210);
#1230=EDGE_CURVE('',#800,#1220,#1200,.T.);
#1240=ORIENTED_EDGE('',*,*,#1230,.F.);
#1250=CARTESIAN_POINT('',(95.,0.,-1.7));
#1260=DIRECTION('',(0.,0.,-1.));
#1270=DIRECTION('',(1.,0.,0.));
#1280=AXIS2_PLACEMENT_3D('',#1250,#1260,#1270);
#1290=CIRCLE('',#1280,15.);
#1300=EDGE_CURVE('',#1220,#1130,#1290,.T.);
#1310=ORIENTED_EDGE('',*,*,#1300,.F.);
#1320=EDGE_LOOP('',(#1310,#1240,#1160,#1150));
#1330=FACE_OUTER_BOUND('',#1320,.T.);
#1340=ADVANCED_FACE('',(#1330),#1070,.T.);
#1350=CARTESIAN_POINT('',(95.,0.,-1.7));
#1360=DIRECTION('',(0.,0.,-1.));
#1370=DIRECTION('',(1.,0.,0.));
#1380=AXIS2_PLACEMENT_3D('',#1350,#1360,#1370);
#1390=TOROIDAL_SURFACE('',#1380,14.7,0.3);
#1400=CARTESIAN_POINT('',(109.7,0.,-1.7));
#1410=DIRECTION('',(0.,-1.,0.));
#1420=DIRECTION('',(1.,0.,0.));
#1430=AXIS2_PLACEMENT_3D('',#1400,#1410,#1420);
#1440=CIRCLE('',#1430,0.3);
#1450=CARTESIAN_POINT('',(109.7,0.,-2.));
#1460=VERTEX_POINT('',#1450);
#1470=EDGE_CURVE('',#1460,#1130,#1440,.T.);
#1480=ORIENTED_EDGE('',*,*,#1470,.F.);
#1490=ORIENTED_EDGE('',*,*,#1300,.T.);
#1500=CARTESIAN_POINT('',(80.3,0.,-1.7));
#1510=DIRECTION('',(0.,1.,0.));
#1520=DIRECTION('',(-1.,0.,0.));
#1530=AXIS2_PLACEMENT_3D('',#1500,#1510,#1520);
#1540=CIRCLE('',#1530,0.3);
#1550=CARTESIAN_POINT('',(80.3,0.,-2.));
#1560=VERTEX_POINT('',#1550);
#1570=EDGE_CURVE('',#1560,#1220,#1540,.T.);
#1580=ORIENTED_EDGE('',*,*,#1570,.T.);
#1590=CARTESIAN_POINT('',(95.,0.,-2.));
#1600=DIRECTION('',(0.,0.,-1.));
#1610=DIRECTION('',(1.,0.,0.));
#1620=AXIS2_PLACEMENT_3D('',#1590,#1600,#1610);
#1630=CIRCLE('',#1620,14.7);
#1640=EDGE_CURVE('',#1560,#1460,#1630,.T.);
#1650=ORIENTED_EDGE('',*,*,#1640,.F.);
#1660=EDGE_LOOP('',(#1650,#1580,#1490,#1480));
#1670=FACE_OUTER_BOUND('',#1660,.T.);
#1680=ADVANCED_FACE('',(#1670),#1390,.T.);
#1690=CARTESIAN_POINT('',(95.,-3.75,-2.));
#1700=DIRECTION('',(0.,0.,-1.));
#1710=DIRECTION('',(1.,0.,0.));
#1720=AXIS2_PLACEMENT_3D('',#1690,#1700,#1710);
#1730=PLANE('',#1720);
#1740=EDGE_CURVE('',#1460,#1560,#1630,.T.);
#1750=ORIENTED_EDGE('',*,*,#1740,.T.);
#1760=ORIENTED_EDGE('',*,*,#1640,.T.);
#1770=EDGE_LOOP('',(#1760,#1750));
#1780=FACE_OUTER_BOUND('',#1770,.T.);
#1790=EDGE_CURVE('',#130,#220,#200,.T.);
#1800=ORIENTED_EDGE('',*,*,#1790,.F.);
#1810=ORIENTED_EDGE('',*,*,#230,.F.);
#1820=EDGE_LOOP('',(#1810,#1800));
#1830=FACE_BOUND('',#1820,.T.);
#1840=ADVANCED_FACE('',(#1780,#1830),#1730,.T.);
#1850=CARTESIAN_POINT('',(95.,0.,0.));
#1860=DIRECTION('',(0.,0.,-1.));
#1870=DIRECTION('',(1.,0.,0.));
#1880=AXIS2_PLACEMENT_3D('',#1850,#1860,#1870);
#1890=CYLINDRICAL_SURFACE('',#1880,15.);
#1900=EDGE_CURVE('',#1130,#1220,#1290,.T.);
#1910=ORIENTED_EDGE('',*,*,#1900,.F.);
#1920=ORIENTED_EDGE('',*,*,#1230,.T.);
#1930=EDGE_CURVE('',#890,#800,#870,.T.);
#1940=ORIENTED_EDGE('',*,*,#1930,.T.);
#1950=ORIENTED_EDGE('',*,*,#1140,.F.);
#1960=EDGE_LOOP('',(#1950,#1940,#1920,#1910));
#1970=FACE_OUTER_BOUND('',#1960,.T.);
#1980=ADVANCED_FACE('',(#1970),#1890,.T.);
#1990=CARTESIAN_POINT('',(95.,0.,0.2000024));
#2000=DIRECTION('',(0.,0.,-1.));
#2010=DIRECTION('',(1.,0.,0.));
#2020=AXIS2_PLACEMENT_3D('',#1990,#2000,#2010);
#2030=CYLINDRICAL_SURFACE('',#2020,2.1);
#2040=ORIENTED_EDGE('',*,*,#630,.F.);
#2050=ORIENTED_EDGE('',*,*,#310,.F.);
#2060=ORIENTED_EDGE('',*,*,#1790,.T.);
#2070=ORIENTED_EDGE('',*,*,#140,.T.);
#2080=EDGE_LOOP('',(#2070,#2060,#2050,#2040));
#2090=FACE_OUTER_BOUND('',#2080,.T.);
#2100=ADVANCED_FACE('',(#2090),#2030,.F.);
#2110=CARTESIAN_POINT('',(95.,0.,-0.3));
#2120=DIRECTION('',(0.,0.,-1.));
#2130=DIRECTION('',(1.,0.,0.));
#2140=AXIS2_PLACEMENT_3D('',#2110,#2120,#2130);
#2150=TOROIDAL_SURFACE('',#2140,14.7,0.3);
#2160=ORIENTED_EDGE('',*,*,#1930,.F.);
#2170=ORIENTED_EDGE('',*,*,#810,.F.);
#2180=ORIENTED_EDGE('',*,*,#570,.T.);
#2190=ORIENTED_EDGE('',*,*,#970,.T.);
#2200=EDGE_LOOP('',(#2190,#2180,#2170,#2160));
#2210=FACE_OUTER_BOUND('',#2200,.T.);
#2220=ADVANCED_FACE('',(#2210),#2150,.T.);
#2230=CARTESIAN_POINT('',(95.,0.,-1.7));
#2240=DIRECTION('',(0.,0.,-1.));
#2250=DIRECTION('',(1.,0.,0.));
#2260=AXIS2_PLACEMENT_3D('',#2230,#2240,#2250);
#2270=TOROIDAL_SURFACE('',#2260,14.7,0.3);
#2280=ORIENTED_EDGE('',*,*,#1740,.F.);
#2290=ORIENTED_EDGE('',*,*,#1570,.F.);
#2300=ORIENTED_EDGE('',*,*,#1900,.T.);
#2310=ORIENTED_EDGE('',*,*,#1470,.T.);
#2320=EDGE_LOOP('',(#2310,#2300,#2290,#2280));
#2330=FACE_OUTER_BOUND('',#2320,.T.);
#2340=ADVANCED_FACE('',(#2330),#2270,.T.);
#2350=CLOSED_SHELL('',(#420,#680,#1020,#1340,#1680,#1840,#1980,#2100,
#2220,#2340));
#2360=MANIFOLD_SOLID_BREP('',#2350);
#2370=CARTESIAN_POINT('',(0.,0.,0.));
#2380=DIRECTION('',(0.,0.,1.));
#2390=DIRECTION('',(1.,0.,0.));
#2400=AXIS2_PLACEMENT_3D('',#2370,#2380,#2390);
#2410=APPLICATION_CONTEXT(' ');
#2420=APPLICATION_PROTOCOL_DEFINITION(' ','automotive_design',1998,#2410
);
#2430=PRODUCT_CONTEXT('',#2410,'mechanical');
#2440=PRODUCT_DEFINITION_CONTEXT('part definition',#2410,'design');
#2450=PRODUCT('DIV-10927','DIV-10927','',(#2430));
#2460=PRODUCT_RELATED_PRODUCT_CATEGORY('part',' ',(#2450));
#2470=PRODUCT_DEFINITION_FORMATION_WITH_SPECIFIED_SOURCE('','',#2450,
.BOUGHT.);
#2480=PRODUCT_DEFINITION('',' ',#2470,#2440);
#2490=PRODUCT_DEFINITION_SHAPE('','',#2480);
#2500=DIMENSIONAL_EXPONENTS(1.,0.,0.,0.,0.,0.,0.);
#2510=DIMENSIONAL_EXPONENTS(0.,0.,0.,0.,0.,0.,0.);
#2520=DIMENSIONAL_EXPONENTS(0.,0.,0.,0.,0.,0.,0.);
#2530=(LENGTH_UNIT() NAMED_UNIT(*) SI_UNIT(.MILLI.,.METRE.));
#2540=(NAMED_UNIT(*) PLANE_ANGLE_UNIT() SI_UNIT($,.RADIAN.));
#2550=(NAMED_UNIT(*) SI_UNIT($,.STERADIAN.) SOLID_ANGLE_UNIT());
#2560=(GEOMETRIC_REPRESENTATION_CONTEXT(3) 
GLOBAL_UNCERTAINTY_ASSIGNED_CONTEXT((#2570)) 
GLOBAL_UNIT_ASSIGNED_CONTEXT((#2530,#2540,#2550)) REPRESENTATION_CONTEXT
('',''));
#2570=UNCERTAINTY_MEASURE_WITH_UNIT(LENGTH_MEASURE(1.E-6),#2530,
'distance_accuracy_value','maximum gap value');
#2580=ADVANCED_BREP_SHAPE_REPRESENTATION('',(#2400,#2360),#2560);
#2590=SHAPE_DEFINITION_REPRESENTATION(#2490,#2580);
#2600=COLOUR_RGB('',0.600000023841858,0.600000023841858,
0.600000023841858);
#2610=FILL_AREA_STYLE_COLOUR('',#2600);
#2620=FILL_AREA_STYLE('',(#2610));
#2630=SURFACE_STYLE_FILL_AREA(#2620);
#2640=SURFACE_SIDE_STYLE('',(#2630));
#2650=SURFACE_STYLE_USAGE(.BOTH.,#2640);
#2660=PRESENTATION_STYLE_ASSIGNMENT((#2650));
#2670=STYLED_ITEM('',(#2660),#2360);
#2680=DRAUGHTING_MODEL('',(#2670),#2560);
#2690=CARTESIAN_POINT('',(-54.,0.,0.));
#2700=DIRECTION('',(0.,0.,1.));
#2710=DIRECTION('',(1.,0.,0.));
#2720=AXIS2_PLACEMENT_3D('',#2690,#2700,#2710);
#2730=ITEM_DEFINED_TRANSFORMATION('DIV-10927','',#2400,#2720);
#2740=APPLICATION_CONTEXT(' ');
#2750=APPLICATION_PROTOCOL_DEFINITION(' ','automotive_design',1998,#2740
);
#2760=PRODUCT_CONTEXT('',#2740,'mechanical');
#2770=PRODUCT_DEFINITION_CONTEXT('part definition',#2740,'design');
#2780=PRODUCT('DIV-10927','DIV-10927','',(#2760));
#2790=PRODUCT_RELATED_PRODUCT_CATEGORY('part',' ',(#2780));
#2800=PRODUCT_DEFINITION_FORMATION_WITH_SPECIFIED_SOURCE('','',#2780,
.BOUGHT.);
#2810=PRODUCT_DEFINITION('',' ',#2800,#2770);
#2820=PRODUCT_DEFINITION_SHAPE('','',#2810);
#2830=DIMENSIONAL_EXPONENTS(1.,0.,0.,0.,0.,0.,0.);
#2840=DIMENSIONAL_EXPONENTS(0.,0.,0.,0.,0.,0.,0.);
#2850=DIMENSIONAL_EXPONENTS(0.,0.,0.,0.,0.,0.,0.);
#2860=(LENGTH_UNIT() NAMED_UNIT(*) SI_UNIT(.MILLI.,.METRE.));
#2870=(NAMED_UNIT(*) PLANE_ANGLE_UNIT() SI_UNIT($,.RADIAN.));
#2880=(NAMED_UNIT(*) SI_UNIT($,.STERADIAN.) SOLID_ANGLE_UNIT());
#2890=(GEOMETRIC_REPRESENTATION_CONTEXT(3) 
GLOBAL_UNCERTAINTY_ASSIGNED_CONTEXT((#2900)) 
GLOBAL_UNIT_ASSIGNED_CONTEXT((#2860,#2870,#2880)) REPRESENTATION_CONTEXT
('',''));
#2900=UNCERTAINTY_MEASURE_WITH_UNIT(LENGTH_MEASURE(1.E-6),#2860,
'distance_accuracy_value','maximum gap value');
#2910=SHAPE_REPRESENTATION('',(#2400,#2720),#2890);
#2920=SHAPE_DEFINITION_REPRESENTATION(#2820,#2910);
#2930=(REPRESENTATION_RELATIONSHIP('','',#2580,#2910) 
REPRESENTATION_RELATIONSHIP_WITH_TRANSFORMATION(#2730) 
SHAPE_REPRESENTATION_RELATIONSHIP());
#2940=NEXT_ASSEMBLY_USAGE_OCCURRENCE('1','','DIV-10927',#2810,#2480,'');
#2950=PRODUCT_DEFINITION_SHAPE('','',#2940);
#2960=CONTEXT_DEPENDENT_SHAPE_REPRESENTATION(#2930,#2950);
ENDSEC;
END-ISO-10303-21;
