ISO-10303-21;
HEADER;
FILE_DESCRIPTION(('Creo Elements/Direct Modeling STEP Export'),'2;1');
FILE_NAME('2279-14.stp','2022-05-04T10:26:03',(''),(''),
'Creo Elements/Direct Modeling STEP processor for AP214 (Solid Model)',
'Creo Elements/Direct Modeling 20.0  12-Nov-2016 (C) Parametric Technolo
gy GmbH','');
FILE_SCHEMA(('AUTOMOTIVE_DESIGN { 1 0 10303 214 1 1 1 1 }'));
ENDSEC;
DATA;
#10=CARTESIAN_POINT('',(3.125,0.,0.));
#20=DIRECTION('',(-0.,-1.,-0.));
#30=DIRECTION('',(-1.,0.,0.));
#40=AXIS2_PLACEMENT_3D('',#10,#20,#30);
#50=PLANE('',#40);
#60=CARTESIAN_POINT('',(0.,0.,0.));
#70=DIRECTION('',(0.,-1.,0.));
#80=DIRECTION('',(-1.,0.,0.));
#90=AXIS2_PLACEMENT_3D('',#60,#70,#80);
#100=CIRCLE('',#90,2.5);
#110=CARTESIAN_POINT('',(2.5,0.,-3.06161699786838E-16));
#120=VERTEX_POINT('',#110);
#130=CARTESIAN_POINT('',(-2.5,-2.22044604925031E-16,0.));
#140=VERTEX_POINT('',#130);
#150=EDGE_CURVE('',#120,#140,#100,.T.);
#160=ORIENTED_EDGE('',*,*,#150,.F.);
#170=EDGE_CURVE('',#140,#120,#100,.T.);
#180=ORIENTED_EDGE('',*,*,#170,.F.);
#190=EDGE_LOOP('',(#180,#160));
#200=FACE_BOUND('',#190,.T.);
#210=CARTESIAN_POINT('',(0.,0.,0.));
#220=DIRECTION('',(0.,-1.,0.));
#230=DIRECTION('',(-1.,0.,0.));
#240=AXIS2_PLACEMENT_3D('',#210,#220,#230);
#250=CIRCLE('',#240,3.75);
#260=CARTESIAN_POINT('',(-3.75,0.,-4.59242549680258E-16));
#270=VERTEX_POINT('',#260);
#280=CARTESIAN_POINT('',(3.75,0.,0.));
#290=VERTEX_POINT('',#280);
#300=EDGE_CURVE('',#270,#290,#250,.T.);
#310=ORIENTED_EDGE('',*,*,#300,.T.);
#320=EDGE_CURVE('',#290,#270,#250,.T.);
#330=ORIENTED_EDGE('',*,*,#320,.T.);
#340=EDGE_LOOP('',(#330,#310));
#350=FACE_OUTER_BOUND('',#340,.T.);
#360=ADVANCED_FACE('',(#200,#350),#50,.T.);
#370=CARTESIAN_POINT('',(0.,5.5,0.));
#380=DIRECTION('',(0.,-1.,0.));
#390=DIRECTION('',(-1.,0.,0.));
#400=AXIS2_PLACEMENT_3D('',#370,#380,#390);
#410=CYLINDRICAL_SURFACE('',#400,4.25);
#420=CARTESIAN_POINT('',(4.25,5.5,-5.20474889637625E-16));
#430=DIRECTION('',(0.,-1.,0.));
#440=VECTOR('',#430,1.);
#450=LINE('',#420,#440);
#460=CARTESIAN_POINT('',(4.25,11.,-5.20474889637625E-16));
#470=VERTEX_POINT('',#460);
#480=CARTESIAN_POINT('',(4.25,0.5,-5.20474889637625E-16));
#490=VERTEX_POINT('',#480);
#500=EDGE_CURVE('',#470,#490,#450,.T.);
#510=ORIENTED_EDGE('',*,*,#500,.F.);
#520=CARTESIAN_POINT('',(0.,0.5,0.));
#530=DIRECTION('',(0.,-1.,0.));
#540=DIRECTION('',(-1.,0.,0.));
#550=AXIS2_PLACEMENT_3D('',#520,#530,#540);
#560=CIRCLE('',#550,4.25);
#570=CARTESIAN_POINT('',(-4.25,0.5,0.));
#580=VERTEX_POINT('',#570);
#590=EDGE_CURVE('',#490,#580,#560,.T.);
#600=ORIENTED_EDGE('',*,*,#590,.F.);
#610=CARTESIAN_POINT('',(-4.25,5.5,0.));
#620=DIRECTION('',(0.,-1.,0.));
#630=VECTOR('',#620,1.);
#640=LINE('',#610,#630);
#650=CARTESIAN_POINT('',(-4.25,11.,0.));
#660=VERTEX_POINT('',#650);
#670=EDGE_CURVE('',#660,#580,#640,.T.);
#680=ORIENTED_EDGE('',*,*,#670,.T.);
#690=CARTESIAN_POINT('',(0.,11.,0.));
#700=DIRECTION('',(0.,-1.,0.));
#710=DIRECTION('',(-1.,0.,0.));
#720=AXIS2_PLACEMENT_3D('',#690,#700,#710);
#730=CIRCLE('',#720,4.25);
#740=EDGE_CURVE('',#470,#660,#730,.T.);
#750=ORIENTED_EDGE('',*,*,#740,.T.);
#760=EDGE_LOOP('',(#750,#680,#600,#510));
#770=FACE_OUTER_BOUND('',#760,.T.);
#780=ADVANCED_FACE('',(#770),#410,.T.);
#790=CARTESIAN_POINT('',(7.625,11.,0.));
#800=DIRECTION('',(-0.,-1.,-0.));
#810=DIRECTION('',(-1.,0.,0.));
#820=AXIS2_PLACEMENT_3D('',#790,#800,#810);
#830=PLANE('',#820);
#840=EDGE_CURVE('',#660,#470,#730,.T.);
#850=ORIENTED_EDGE('',*,*,#840,.F.);
#860=ORIENTED_EDGE('',*,*,#740,.F.);
#870=EDGE_LOOP('',(#860,#850));
#880=FACE_BOUND('',#870,.T.);
#890=CARTESIAN_POINT('',(0.,11.,0.));
#900=DIRECTION('',(0.,-1.,0.));
#910=DIRECTION('',(-1.,0.,0.));
#920=AXIS2_PLACEMENT_3D('',#890,#900,#910);
#930=CIRCLE('',#920,6.7);
#940=CARTESIAN_POINT('',(-6.7,11.,-8.20513355428727E-16));
#950=VERTEX_POINT('',#940);
#960=CARTESIAN_POINT('',(6.7,11.,0.));
#970=VERTEX_POINT('',#960);
#980=EDGE_CURVE('',#950,#970,#930,.T.);
#990=ORIENTED_EDGE('',*,*,#980,.T.);
#1000=EDGE_CURVE('',#970,#950,#930,.T.);
#1010=ORIENTED_EDGE('',*,*,#1000,.T.);
#1020=EDGE_LOOP('',(#1010,#990));
#1030=FACE_OUTER_BOUND('',#1020,.T.);
#1040=ADVANCED_FACE('',(#880,#1030),#830,.T.);
#1050=CARTESIAN_POINT('',(0.,13.,0.));
#1060=DIRECTION('',(0.,-1.,0.));
#1070=DIRECTION('',(-1.,0.,0.));
#1080=AXIS2_PLACEMENT_3D('',#1050,#1060,#1070);
#1090=CYLINDRICAL_SURFACE('',#1080,7.);
#1100=CARTESIAN_POINT('',(7.,13.,-8.57252759403147E-16));
#1110=DIRECTION('',(0.,-1.,0.));
#1120=VECTOR('',#1110,1.);
#1130=LINE('',#1100,#1120);
#1140=CARTESIAN_POINT('',(7.,14.7,-8.57252759403147E-16));
#1150=VERTEX_POINT('',#1140);
#1160=CARTESIAN_POINT('',(7.,11.3,-8.57252759403147E-16));
#1170=VERTEX_POINT('',#1160);
#1180=EDGE_CURVE('',#1150,#1170,#1130,.T.);
#1190=ORIENTED_EDGE('',*,*,#1180,.F.);
#1200=CARTESIAN_POINT('',(0.,11.3,0.));
#1210=DIRECTION('',(0.,-1.,0.));
#1220=DIRECTION('',(-1.,0.,0.));
#1230=AXIS2_PLACEMENT_3D('',#1200,#1210,#1220);
#1240=CIRCLE('',#1230,7.);
#1250=CARTESIAN_POINT('',(-7.,11.3,0.));
#1260=VERTEX_POINT('',#1250);
#1270=EDGE_CURVE('',#1170,#1260,#1240,.T.);
#1280=ORIENTED_EDGE('',*,*,#1270,.F.);
#1290=CARTESIAN_POINT('',(-7.,13.,0.));
#1300=DIRECTION('',(0.,-1.,0.));
#1310=VECTOR('',#1300,1.);
#1320=LINE('',#1290,#1310);
#1330=CARTESIAN_POINT('',(-7.,14.7,0.));
#1340=VERTEX_POINT('',#1330);
#1350=EDGE_CURVE('',#1340,#1260,#1320,.T.);
#1360=ORIENTED_EDGE('',*,*,#1350,.T.);
#1370=CARTESIAN_POINT('',(0.,14.7,0.));
#1380=DIRECTION('',(0.,-1.,0.));
#1390=DIRECTION('',(-1.,0.,0.));
#1400=AXIS2_PLACEMENT_3D('',#1370,#1380,#1390);
#1410=CIRCLE('',#1400,7.);
#1420=EDGE_CURVE('',#1150,#1340,#1410,.T.);
#1430=ORIENTED_EDGE('',*,*,#1420,.T.);
#1440=EDGE_LOOP('',(#1430,#1360,#1280,#1190));
#1450=FACE_OUTER_BOUND('',#1440,.T.);
#1460=ADVANCED_FACE('',(#1450),#1090,.T.);
#1470=CARTESIAN_POINT('',(4.5,15.,0.));
#1480=DIRECTION('',(-0.,-1.,-0.));
#1490=DIRECTION('',(-1.,0.,0.));
#1500=AXIS2_PLACEMENT_3D('',#1470,#1480,#1490);
#1510=PLANE('',#1500);
#1520=CARTESIAN_POINT('',(0.,15.,0.));
#1530=DIRECTION('',(0.,-1.,0.));
#1540=DIRECTION('',(-1.,0.,0.));
#1550=AXIS2_PLACEMENT_3D('',#1520,#1530,#1540);
#1560=CIRCLE('',#1550,6.7);
#1570=CARTESIAN_POINT('',(-6.7,15.,0.));
#1580=VERTEX_POINT('',#1570);
#1590=CARTESIAN_POINT('',(6.7,15.,-8.20513355428727E-16));
#1600=VERTEX_POINT('',#1590);
#1610=EDGE_CURVE('',#1580,#1600,#1560,.T.);
#1620=ORIENTED_EDGE('',*,*,#1610,.F.);
#1630=EDGE_CURVE('',#1600,#1580,#1560,.T.);
#1640=ORIENTED_EDGE('',*,*,#1630,.F.);
#1650=EDGE_LOOP('',(#1640,#1620));
#1660=FACE_OUTER_BOUND('',#1650,.T.);
#1670=ADVANCED_FACE('',(#1660),#1510,.F.);
#1680=CARTESIAN_POINT('',(0.,10.,0.));
#1690=DIRECTION('',(0.,-1.,0.));
#1700=DIRECTION('',(1.,0.,0.));
#1710=AXIS2_PLACEMENT_3D('',#1680,#1690,#1700);
#1720=CONICAL_SURFACE('',#1710,1.635,1.02974425867666);
#1730=CARTESIAN_POINT('',(1.635,10.,0.));
#1740=DIRECTION('',(0.857167300702113,-0.515038074910054,0.));
#1750=VECTOR('',#1740,1.90744560444706);
#1760=LINE('',#1730,#1750);
#1770=CARTESIAN_POINT('',(-2.22044604925031E-16,10.9824071121101,
2.46519032881566E-32));
#1780=VERTEX_POINT('',#1770);
#1790=CARTESIAN_POINT('',(1.635,10.,0.));
#1800=VERTEX_POINT('',#1790);
#1810=EDGE_CURVE('',#1780,#1800,#1760,.T.);
#1820=ORIENTED_EDGE('',*,*,#1810,.T.);
#1830=CARTESIAN_POINT('',(-1.635,10.,2.00229751660592E-16));
#1840=DIRECTION('',(-0.857167300702113,-0.515038074910054,
1.04972719113862E-16));
#1850=VECTOR('',#1840,1.90744560444706);
#1860=LINE('',#1830,#1850);
#1870=CARTESIAN_POINT('',(-1.635,10.,2.00229751660592E-16));
#1880=VERTEX_POINT('',#1870);
#1890=EDGE_CURVE('',#1780,#1880,#1860,.T.);
#1900=ORIENTED_EDGE('',*,*,#1890,.F.);
#1910=CARTESIAN_POINT('',(0.,10.,0.));
#1920=DIRECTION('',(0.,1.,0.));
#1930=DIRECTION('',(1.,0.,0.));
#1940=AXIS2_PLACEMENT_3D('',#1910,#1920,#1930);
#1950=CIRCLE('',#1940,1.635);
#1960=EDGE_CURVE('',#1880,#1800,#1950,.T.);
#1970=ORIENTED_EDGE('',*,*,#1960,.F.);
#1980=EDGE_LOOP('',(#1970,#1900,#1820));
#1990=FACE_OUTER_BOUND('',#1980,.T.);
#2000=ADVANCED_FACE('',(#1990),#1720,.F.);
#2010=CARTESIAN_POINT('',(0.,0.,0.));
#2020=DIRECTION('',(0.,1.,0.));
#2030=DIRECTION('',(1.,0.,0.));
#2040=AXIS2_PLACEMENT_3D('',#2010,#2020,#2030);
#2050=CONICAL_SURFACE('',#2040,3.75,0.785398163397448);
#2060=CARTESIAN_POINT('',(-3.75,0.,-4.59242549680258E-16));
#2070=DIRECTION('',(-0.707106781186548,0.707106781186548,
-8.65956056235494E-17));
#2080=VECTOR('',#2070,5.30330085889911);
#2090=LINE('',#2060,#2080);
#2100=EDGE_CURVE('',#270,#580,#2090,.T.);
#2110=ORIENTED_EDGE('',*,*,#2100,.F.);
#2120=ORIENTED_EDGE('',*,*,#590,.T.);
#2130=CARTESIAN_POINT('',(3.75,0.,0.));
#2140=DIRECTION('',(0.707106781186548,0.707106781186548,0.));
#2150=VECTOR('',#2140,5.30330085889911);
#2160=LINE('',#2130,#2150);
#2170=EDGE_CURVE('',#290,#490,#2160,.T.);
#2180=ORIENTED_EDGE('',*,*,#2170,.T.);
#2190=ORIENTED_EDGE('',*,*,#320,.F.);
#2200=EDGE_LOOP('',(#2190,#2180,#2120,#2110));
#2210=FACE_OUTER_BOUND('',#2200,.T.);
#2220=ADVANCED_FACE('',(#2210),#2050,.T.);
#2230=CARTESIAN_POINT('',(0.,0.85,0.));
#2240=DIRECTION('',(0.,-1.,0.));
#2250=DIRECTION('',(-1.,0.,0.));
#2260=AXIS2_PLACEMENT_3D('',#2230,#2240,#2250);
#2270=CONICAL_SURFACE('',#2260,1.65,0.785398163397448);
#2280=CARTESIAN_POINT('',(1.65,0.85,-2.02066721859313E-16));
#2290=DIRECTION('',(0.707106781186548,-0.707106781186548,
-8.65956056235493E-17));
#2300=VECTOR('',#2290,2.33345237791561);
#2310=LINE('',#2280,#2300);
#2320=CARTESIAN_POINT('',(1.65,0.85,-2.02066721859313E-16));
#2330=VERTEX_POINT('',#2320);
#2340=EDGE_CURVE('',#2330,#120,#2310,.T.);
#2350=ORIENTED_EDGE('',*,*,#2340,.F.);
#2360=ORIENTED_EDGE('',*,*,#170,.T.);
#2370=CARTESIAN_POINT('',(-1.65,0.85,0.));
#2380=DIRECTION('',(-0.707106781186548,-0.707106781186548,0.));
#2390=VECTOR('',#2380,2.33345237791561);
#2400=LINE('',#2370,#2390);
#2410=CARTESIAN_POINT('',(-1.65,0.85,0.));
#2420=VERTEX_POINT('',#2410);
#2430=EDGE_CURVE('',#2420,#140,#2400,.T.);
#2440=ORIENTED_EDGE('',*,*,#2430,.T.);
#2450=CARTESIAN_POINT('',(0.,0.85,0.));
#2460=DIRECTION('',(0.,-1.,0.));
#2470=DIRECTION('',(-1.,0.,0.));
#2480=AXIS2_PLACEMENT_3D('',#2450,#2460,#2470);
#2490=CIRCLE('',#2480,1.65);
#2500=EDGE_CURVE('',#2420,#2330,#2490,.T.);
#2510=ORIENTED_EDGE('',*,*,#2500,.F.);
#2520=EDGE_LOOP('',(#2510,#2440,#2360,#2350));
#2530=FACE_OUTER_BOUND('',#2520,.T.);
#2540=ADVANCED_FACE('',(#2530),#2270,.F.);
#2550=CARTESIAN_POINT('',(0.,3.5,0.));
#2560=DIRECTION('',(0.,-1.,0.));
#2570=DIRECTION('',(1.,0.,0.));
#2580=AXIS2_PLACEMENT_3D('',#2550,#2560,#2570);
#2590=CYLINDRICAL_SURFACE('',#2580,1.65);
#2600=CARTESIAN_POINT('',(-1.65,3.5,2.02066721859313E-16));
#2610=DIRECTION('',(0.,-1.,0.));
#2620=VECTOR('',#2610,1.);
#2630=LINE('',#2600,#2620);
#2640=CARTESIAN_POINT('',(-1.65,7.,2.02066721859313E-16));
#2650=VERTEX_POINT('',#2640);
#2660=EDGE_CURVE('',#2650,#2420,#2630,.T.);
#2670=ORIENTED_EDGE('',*,*,#2660,.T.);
#2680=CARTESIAN_POINT('',(0.,7.,0.));
#2690=DIRECTION('',(0.,1.,0.));
#2700=DIRECTION('',(1.,0.,0.));
#2710=AXIS2_PLACEMENT_3D('',#2680,#2690,#2700);
#2720=CIRCLE('',#2710,1.65);
#2730=CARTESIAN_POINT('',(1.65,7.,0.));
#2740=VERTEX_POINT('',#2730);
#2750=EDGE_CURVE('',#2740,#2650,#2720,.T.);
#2760=ORIENTED_EDGE('',*,*,#2750,.T.);
#2770=CARTESIAN_POINT('',(1.65,3.5,0.));
#2780=DIRECTION('',(0.,-1.,0.));
#2790=VECTOR('',#2780,1.);
#2800=LINE('',#2770,#2790);
#2810=EDGE_CURVE('',#2740,#2330,#2800,.T.);
#2820=ORIENTED_EDGE('',*,*,#2810,.F.);
#2830=ORIENTED_EDGE('',*,*,#2500,.T.);
#2840=EDGE_LOOP('',(#2830,#2820,#2760,#2670));
#2850=FACE_OUTER_BOUND('',#2840,.T.);
#2860=ADVANCED_FACE('M4_25753',(#2850),#2590,.F.);
#2870=COLOUR_RGB('',1.,0.,0.);
#2880=FILL_AREA_STYLE_COLOUR('',#2870);
#2890=FILL_AREA_STYLE('',(#2880));
#2900=SURFACE_STYLE_FILL_AREA(#2890);
#2910=SURFACE_SIDE_STYLE('',(#2900));
#2920=SURFACE_STYLE_USAGE(.BOTH.,#2910);
#2930=PRESENTATION_STYLE_ASSIGNMENT((#2920));
#2940=CARTESIAN_POINT('',(1.6425,7.,0.));
#2950=DIRECTION('',(0.,-1.,0.));
#2960=DIRECTION('',(1.,0.,0.));
#2970=AXIS2_PLACEMENT_3D('',#2940,#2950,#2960);
#2980=PLANE('',#2970);
#2990=ORIENTED_EDGE('',*,*,#2750,.F.);
#3000=EDGE_CURVE('',#2650,#2740,#2720,.T.);
#3010=ORIENTED_EDGE('',*,*,#3000,.F.);
#3020=EDGE_LOOP('',(#3010,#2990));
#3030=FACE_OUTER_BOUND('',#3020,.T.);
#3040=CARTESIAN_POINT('',(0.,7.,0.));
#3050=DIRECTION('',(0.,1.,0.));
#3060=DIRECTION('',(1.,0.,0.));
#3070=AXIS2_PLACEMENT_3D('',#3040,#3050,#3060);
#3080=CIRCLE('',#3070,1.635);
#3090=CARTESIAN_POINT('',(1.635,7.,0.));
#3100=VERTEX_POINT('',#3090);
#3110=CARTESIAN_POINT('',(-1.635,7.,2.00229751660592E-16));
#3120=VERTEX_POINT('',#3110);
#3130=EDGE_CURVE('',#3100,#3120,#3080,.T.);
#3140=ORIENTED_EDGE('',*,*,#3130,.T.);
#3150=EDGE_CURVE('',#3120,#3100,#3080,.T.);
#3160=ORIENTED_EDGE('',*,*,#3150,.T.);
#3170=EDGE_LOOP('',(#3160,#3140));
#3180=FACE_BOUND('',#3170,.T.);
#3190=ADVANCED_FACE('',(#3030,#3180),#2980,.T.);
#3200=CARTESIAN_POINT('',(0.,8.5,0.));
#3210=DIRECTION('',(0.,-1.,0.));
#3220=DIRECTION('',(1.,0.,0.));
#3230=AXIS2_PLACEMENT_3D('',#3200,#3210,#3220);
#3240=CYLINDRICAL_SURFACE('',#3230,1.635);
#3250=CARTESIAN_POINT('',(1.635,8.5,0.));
#3260=DIRECTION('',(0.,-1.,0.));
#3270=VECTOR('',#3260,1.);
#3280=LINE('',#3250,#3270);
#3290=EDGE_CURVE('',#1800,#3100,#3280,.T.);
#3300=ORIENTED_EDGE('',*,*,#3290,.T.);
#3310=ORIENTED_EDGE('',*,*,#1960,.T.);
#3320=CARTESIAN_POINT('',(-1.635,8.5,2.00229751660592E-16));
#3330=DIRECTION('',(0.,-1.,0.));
#3340=VECTOR('',#3330,1.);
#3350=LINE('',#3320,#3340);
#3360=EDGE_CURVE('',#1880,#3120,#3350,.T.);
#3370=ORIENTED_EDGE('',*,*,#3360,.F.);
#3380=ORIENTED_EDGE('',*,*,#3150,.F.);
#3390=EDGE_LOOP('',(#3380,#3370,#3310,#3300));
#3400=FACE_OUTER_BOUND('',#3390,.T.);
#3410=ADVANCED_FACE('',(#3400),#3240,.F.);
#3420=CARTESIAN_POINT('',(0.,11.,0.));
#3430=DIRECTION('',(0.,1.,0.));
#3440=DIRECTION('',(1.,0.,0.));
#3450=AXIS2_PLACEMENT_3D('',#3420,#3430,#3440);
#3460=CONICAL_SURFACE('',#3450,6.7,0.785398163397447);
#3470=CARTESIAN_POINT('',(-6.7,11.,-8.20513355428727E-16));
#3480=DIRECTION('',(-0.707106781186547,0.707106781186549,
-8.65956056235492E-17));
#3490=VECTOR('',#3480,9.47523086789975);
#3500=LINE('',#3470,#3490);
#3510=EDGE_CURVE('',#950,#1260,#3500,.T.);
#3520=ORIENTED_EDGE('',*,*,#3510,.F.);
#3530=ORIENTED_EDGE('',*,*,#1270,.T.);
#3540=CARTESIAN_POINT('',(6.7,11.,0.));
#3550=DIRECTION('',(0.707106781186547,0.707106781186549,0.));
#3560=VECTOR('',#3550,9.47523086789975);
#3570=LINE('',#3540,#3560);
#3580=EDGE_CURVE('',#970,#1170,#3570,.T.);
#3590=ORIENTED_EDGE('',*,*,#3580,.T.);
#3600=ORIENTED_EDGE('',*,*,#1000,.F.);
#3610=EDGE_LOOP('',(#3600,#3590,#3530,#3520));
#3620=FACE_OUTER_BOUND('',#3610,.T.);
#3630=ADVANCED_FACE('',(#3620),#3460,.T.);
#3640=CARTESIAN_POINT('',(0.,14.7,0.));
#3650=DIRECTION('',(0.,-1.,0.));
#3660=DIRECTION('',(-1.,0.,0.));
#3670=AXIS2_PLACEMENT_3D('',#3640,#3650,#3660);
#3680=CONICAL_SURFACE('',#3670,7.,0.785398163397447);
#3690=CARTESIAN_POINT('',(-7.,14.7,0.));
#3700=DIRECTION('',(-0.707106781186546,-0.707106781186549,0.));
#3710=VECTOR('',#3700,9.89949493661168);
#3720=LINE('',#3690,#3710);
#3730=EDGE_CURVE('',#1580,#1340,#3720,.T.);
#3740=ORIENTED_EDGE('',*,*,#3730,.T.);
#3750=ORIENTED_EDGE('',*,*,#1630,.T.);
#3760=CARTESIAN_POINT('',(7.,14.7,-8.57252759403147E-16));
#3770=DIRECTION('',(0.707106781186546,-0.707106781186549,
-8.65956056235492E-17));
#3780=VECTOR('',#3770,9.89949493661168);
#3790=LINE('',#3760,#3780);
#3800=EDGE_CURVE('',#1600,#1150,#3790,.T.);
#3810=ORIENTED_EDGE('',*,*,#3800,.F.);
#3820=ORIENTED_EDGE('',*,*,#1420,.F.);
#3830=EDGE_LOOP('',(#3820,#3810,#3750,#3740));
#3840=FACE_OUTER_BOUND('',#3830,.T.);
#3850=ADVANCED_FACE('',(#3840),#3680,.T.);
#3860=CARTESIAN_POINT('',(0.,10.,0.));
#3870=DIRECTION('',(0.,-1.,0.));
#3880=DIRECTION('',(1.,0.,0.));
#3890=AXIS2_PLACEMENT_3D('',#3860,#3870,#3880);
#3900=CONICAL_SURFACE('',#3890,1.635,1.02974425867666);
#3910=ORIENTED_EDGE('',*,*,#1810,.F.);
#3920=EDGE_CURVE('',#1800,#1880,#1950,.T.);
#3930=ORIENTED_EDGE('',*,*,#3920,.F.);
#3940=ORIENTED_EDGE('',*,*,#1890,.T.);
#3950=EDGE_LOOP('',(#3940,#3930,#3910));
#3960=FACE_OUTER_BOUND('',#3950,.T.);
#3970=ADVANCED_FACE('',(#3960),#3900,.F.);
#3980=CARTESIAN_POINT('',(0.,0.,0.));
#3990=DIRECTION('',(0.,1.,0.));
#4000=DIRECTION('',(1.,0.,0.));
#4010=AXIS2_PLACEMENT_3D('',#3980,#3990,#4000);
#4020=CONICAL_SURFACE('',#4010,3.75,0.785398163397448);
#4030=EDGE_CURVE('',#580,#490,#560,.T.);
#4040=ORIENTED_EDGE('',*,*,#4030,.T.);
#4050=ORIENTED_EDGE('',*,*,#2100,.T.);
#4060=ORIENTED_EDGE('',*,*,#300,.F.);
#4070=ORIENTED_EDGE('',*,*,#2170,.F.);
#4080=EDGE_LOOP('',(#4070,#4060,#4050,#4040));
#4090=FACE_OUTER_BOUND('',#4080,.T.);
#4100=ADVANCED_FACE('',(#4090),#4020,.T.);
#4110=CARTESIAN_POINT('',(0.,5.5,0.));
#4120=DIRECTION('',(0.,-1.,0.));
#4130=DIRECTION('',(-1.,0.,0.));
#4140=AXIS2_PLACEMENT_3D('',#4110,#4120,#4130);
#4150=CYLINDRICAL_SURFACE('',#4140,4.25);
#4160=ORIENTED_EDGE('',*,*,#4030,.F.);
#4170=ORIENTED_EDGE('',*,*,#500,.T.);
#4180=ORIENTED_EDGE('',*,*,#840,.T.);
#4190=ORIENTED_EDGE('',*,*,#670,.F.);
#4200=EDGE_LOOP('',(#4190,#4180,#4170,#4160));
#4210=FACE_OUTER_BOUND('',#4200,.T.);
#4220=ADVANCED_FACE('',(#4210),#4150,.T.);
#4230=CARTESIAN_POINT('',(0.,3.5,0.));
#4240=DIRECTION('',(0.,-1.,0.));
#4250=DIRECTION('',(1.,0.,0.));
#4260=AXIS2_PLACEMENT_3D('',#4230,#4240,#4250);
#4270=CYLINDRICAL_SURFACE('',#4260,1.65);
#4280=ORIENTED_EDGE('',*,*,#2660,.F.);
#4290=EDGE_CURVE('',#2330,#2420,#2490,.T.);
#4300=ORIENTED_EDGE('',*,*,#4290,.T.);
#4310=ORIENTED_EDGE('',*,*,#2810,.T.);
#4320=ORIENTED_EDGE('',*,*,#3000,.T.);
#4330=EDGE_LOOP('',(#4320,#4310,#4300,#4280));
#4340=FACE_OUTER_BOUND('',#4330,.T.);
#4350=ADVANCED_FACE('',(#4340),#4270,.F.);
#4360=COLOUR_RGB('',1.,0.,0.);
#4370=FILL_AREA_STYLE_COLOUR('',#4360);
#4380=FILL_AREA_STYLE('',(#4370));
#4390=SURFACE_STYLE_FILL_AREA(#4380);
#4400=SURFACE_SIDE_STYLE('',(#4390));
#4410=SURFACE_STYLE_USAGE(.BOTH.,#4400);
#4420=PRESENTATION_STYLE_ASSIGNMENT((#4410));
#4430=CARTESIAN_POINT('',(0.,0.85,0.));
#4440=DIRECTION('',(0.,-1.,0.));
#4450=DIRECTION('',(-1.,0.,0.));
#4460=AXIS2_PLACEMENT_3D('',#4430,#4440,#4450);
#4470=CONICAL_SURFACE('',#4460,1.65,0.785398163397448);
#4480=ORIENTED_EDGE('',*,*,#150,.T.);
#4490=ORIENTED_EDGE('',*,*,#2340,.T.);
#4500=ORIENTED_EDGE('',*,*,#4290,.F.);
#4510=ORIENTED_EDGE('',*,*,#2430,.F.);
#4520=EDGE_LOOP('',(#4510,#4500,#4490,#4480));
#4530=FACE_OUTER_BOUND('',#4520,.T.);
#4540=ADVANCED_FACE('',(#4530),#4470,.F.);
#4550=CARTESIAN_POINT('',(0.,8.5,0.));
#4560=DIRECTION('',(0.,-1.,0.));
#4570=DIRECTION('',(1.,0.,0.));
#4580=AXIS2_PLACEMENT_3D('',#4550,#4560,#4570);
#4590=CYLINDRICAL_SURFACE('',#4580,1.635);
#4600=ORIENTED_EDGE('',*,*,#3130,.F.);
#4610=ORIENTED_EDGE('',*,*,#3360,.T.);
#4620=ORIENTED_EDGE('',*,*,#3920,.T.);
#4630=ORIENTED_EDGE('',*,*,#3290,.F.);
#4640=EDGE_LOOP('',(#4630,#4620,#4610,#4600));
#4650=FACE_OUTER_BOUND('',#4640,.T.);
#4660=ADVANCED_FACE('',(#4650),#4590,.F.);
#4670=CARTESIAN_POINT('',(0.,13.,0.));
#4680=DIRECTION('',(0.,-1.,0.));
#4690=DIRECTION('',(-1.,0.,0.));
#4700=AXIS2_PLACEMENT_3D('',#4670,#4680,#4690);
#4710=CYLINDRICAL_SURFACE('',#4700,7.);
#4720=EDGE_CURVE('',#1260,#1170,#1240,.T.);
#4730=ORIENTED_EDGE('',*,*,#4720,.F.);
#4740=ORIENTED_EDGE('',*,*,#1180,.T.);
#4750=EDGE_CURVE('',#1340,#1150,#1410,.T.);
#4760=ORIENTED_EDGE('',*,*,#4750,.T.);
#4770=ORIENTED_EDGE('',*,*,#1350,.F.);
#4780=EDGE_LOOP('',(#4770,#4760,#4740,#4730));
#4790=FACE_OUTER_BOUND('',#4780,.T.);
#4800=ADVANCED_FACE('',(#4790),#4710,.T.);
#4810=CARTESIAN_POINT('',(0.,11.,0.));
#4820=DIRECTION('',(0.,1.,0.));
#4830=DIRECTION('',(1.,0.,0.));
#4840=AXIS2_PLACEMENT_3D('',#4810,#4820,#4830);
#4850=CONICAL_SURFACE('',#4840,6.7,0.785398163397447);
#4860=ORIENTED_EDGE('',*,*,#4720,.T.);
#4870=ORIENTED_EDGE('',*,*,#3510,.T.);
#4880=ORIENTED_EDGE('',*,*,#980,.F.);
#4890=ORIENTED_EDGE('',*,*,#3580,.F.);
#4900=EDGE_LOOP('',(#4890,#4880,#4870,#4860));
#4910=FACE_OUTER_BOUND('',#4900,.T.);
#4920=ADVANCED_FACE('',(#4910),#4850,.T.);
#4930=CARTESIAN_POINT('',(0.,14.7,0.));
#4940=DIRECTION('',(0.,-1.,0.));
#4950=DIRECTION('',(-1.,0.,0.));
#4960=AXIS2_PLACEMENT_3D('',#4930,#4940,#4950);
#4970=CONICAL_SURFACE('',#4960,7.,0.785398163397447);
#4980=ORIENTED_EDGE('',*,*,#4750,.F.);
#4990=ORIENTED_EDGE('',*,*,#3800,.T.);
#5000=ORIENTED_EDGE('',*,*,#1610,.T.);
#5010=ORIENTED_EDGE('',*,*,#3730,.F.);
#5020=EDGE_LOOP('',(#5010,#5000,#4990,#4980));
#5030=FACE_OUTER_BOUND('',#5020,.T.);
#5040=ADVANCED_FACE('',(#5030),#4970,.T.);
#5050=CLOSED_SHELL('',(#360,#780,#1040,#1460,#1670,#2000,#2220,#2540,
#2860,#3190,#3410,#3630,#3850,#3970,#4100,#4220,#4350,#4540,#4660,#4800,
#4920,#5040));
#5060=MANIFOLD_SOLID_BREP('',#5050);
#5070=CARTESIAN_POINT('',(0.,0.,0.));
#5080=DIRECTION('',(0.,0.,1.));
#5090=DIRECTION('',(1.,0.,0.));
#5100=AXIS2_PLACEMENT_3D('',#5070,#5080,#5090);
#5110=APPLICATION_CONTEXT(' ');
#5120=APPLICATION_PROTOCOL_DEFINITION(' ','automotive_design',1998,#5110
);
#5130=PRODUCT_CONTEXT('',#5110,'mechanical');
#5140=PRODUCT_DEFINITION_CONTEXT('part definition',#5110,'design');
#5150=PRODUCT('NI-10630','NI-10630','',(#5130));
#5160=PRODUCT_RELATED_PRODUCT_CATEGORY('part',' ',(#5150));
#5170=PRODUCT_DEFINITION_FORMATION_WITH_SPECIFIED_SOURCE('','',#5150,
.BOUGHT.);
#5180=PRODUCT_DEFINITION('',' ',#5170,#5140);
#5190=PRODUCT_DEFINITION_SHAPE('','',#5180);
#5200=DIMENSIONAL_EXPONENTS(1.,0.,0.,0.,0.,0.,0.);
#5210=DIMENSIONAL_EXPONENTS(0.,0.,0.,0.,0.,0.,0.);
#5220=DIMENSIONAL_EXPONENTS(0.,0.,0.,0.,0.,0.,0.);
#5230=(LENGTH_UNIT() NAMED_UNIT(*) SI_UNIT(.MILLI.,.METRE.));
#5240=(NAMED_UNIT(*) PLANE_ANGLE_UNIT() SI_UNIT($,.RADIAN.));
#5250=(NAMED_UNIT(*) SI_UNIT($,.STERADIAN.) SOLID_ANGLE_UNIT());
#5260=(GEOMETRIC_REPRESENTATION_CONTEXT(3) 
GLOBAL_UNCERTAINTY_ASSIGNED_CONTEXT((#5270)) 
GLOBAL_UNIT_ASSIGNED_CONTEXT((#5230,#5240,#5250)) REPRESENTATION_CONTEXT
('',''));
#5270=UNCERTAINTY_MEASURE_WITH_UNIT(LENGTH_MEASURE(1.E-6),#5230,
'distance_accuracy_value','maximum gap value');
#5280=ADVANCED_BREP_SHAPE_REPRESENTATION('',(#5100,#5060),#5260);
#5290=SHAPE_DEFINITION_REPRESENTATION(#5190,#5280);
#5300=COLOUR_RGB('',0.600000023841858,0.600000023841858,
0.600000023841858);
#5310=FILL_AREA_STYLE_COLOUR('',#5300);
#5320=FILL_AREA_STYLE('',(#5310));
#5330=SURFACE_STYLE_FILL_AREA(#5320);
#5340=SURFACE_SIDE_STYLE('',(#5330));
#5350=SURFACE_STYLE_USAGE(.BOTH.,#5340);
#5360=PRESENTATION_STYLE_ASSIGNMENT((#5350));
#5370=STYLED_ITEM('',(#5360),#5060);
#5380=OVER_RIDING_STYLED_ITEM('',(#2930),#2860,#5370);
#5390=OVER_RIDING_STYLED_ITEM('',(#4420),#4350,#5370);
#5400=DRAUGHTING_MODEL('',(#5370,#5380,#5390),#5260);
ENDSEC;
END-ISO-10303-21;
