ISO-10303-21;
HEADER;
FILE_DESCRIPTION(('Creo Elements/Direct Modeling STEP Export'),'2;1');
FILE_NAME('2423H-170.stp','2022-01-26T11:09:25',(''),(''),
'Creo Elements/Direct Modeling STEP processor for AP214 (Solid Model)',
'Creo Elements/Direct Modeling 20.0  12-Nov-2016 (C) Parametric Technolo
gy GmbH','');
FILE_SCHEMA(('AUTOMOTIVE_DESIGN { 1 0 10303 214 1 1 1 1 }'));
ENDSEC;
DATA;
#10=CARTESIAN_POINT('',(0.,27.,0.));
#20=DIRECTION('',(1.,-0.,-0.));
#30=DIRECTION('',(-0.,-1.,0.));
#40=AXIS2_PLACEMENT_3D('',#10,#20,#30);
#50=CYLINDRICAL_SURFACE('',#40,5.);
#60=CARTESIAN_POINT('',(0.,32.,-6.12323399573677E-16));
#70=DIRECTION('',(1.,-0.,-0.));
#80=VECTOR('',#70,1.);
#90=LINE('',#60,#80);
#100=CARTESIAN_POINT('',(-117.,32.,-6.12323399573677E-16));
#110=VERTEX_POINT('',#100);
#120=CARTESIAN_POINT('',(53.,32.,-6.12323399573677E-16));
#130=VERTEX_POINT('',#120);
#140=EDGE_CURVE('',#110,#130,#90,.T.);
#150=ORIENTED_EDGE('',*,*,#140,.F.);
#160=CARTESIAN_POINT('',(48.,27.,0.));
#170=DIRECTION('',(0.707106781186548,-0.707106781186548,-0.));
#180=DIRECTION('',(0.707106781186548,0.707106781186548,0.));
#190=AXIS2_PLACEMENT_3D('',#160,#170,#180);
#200=ELLIPSE('',#190,7.07106781186548,5.);
#210=CARTESIAN_POINT('',(48.,27.,5.));
#220=VERTEX_POINT('',#210);
#230=EDGE_CURVE('',#130,#220,#200,.T.);
#240=ORIENTED_EDGE('',*,*,#230,.F.);
#250=CARTESIAN_POINT('',(43.,22.,0.));
#260=VERTEX_POINT('',#250);
#270=EDGE_CURVE('',#220,#260,#200,.T.);
#280=ORIENTED_EDGE('',*,*,#270,.F.);
#290=CARTESIAN_POINT('',(0.,22.,0.));
#300=DIRECTION('',(1.,-0.,-0.));
#310=VECTOR('',#300,1.);
#320=LINE('',#290,#310);
#330=CARTESIAN_POINT('',(-107.,22.,0.));
#340=VERTEX_POINT('',#330);
#350=EDGE_CURVE('',#340,#260,#320,.T.);
#360=ORIENTED_EDGE('',*,*,#350,.T.);
#370=CARTESIAN_POINT('',(-112.,27.,1.5675479029086E-14));
#380=DIRECTION('',(0.707106781186548,0.707106781186548,0.));
#390=DIRECTION('',(0.707106781186548,-0.707106781186548,-0.));
#400=AXIS2_PLACEMENT_3D('',#370,#380,#390);
#410=ELLIPSE('',#400,7.07106781186548,5.);
#420=CARTESIAN_POINT('',(-112.,27.,5.00000000000001));
#430=VERTEX_POINT('',#420);
#440=EDGE_CURVE('',#430,#340,#410,.T.);
#450=ORIENTED_EDGE('',*,*,#440,.T.);
#460=EDGE_CURVE('',#110,#430,#410,.T.);
#470=ORIENTED_EDGE('',*,*,#460,.T.);
#480=EDGE_LOOP('',(#470,#450,#360,#280,#240,#150));
#490=FACE_OUTER_BOUND('',#480,.T.);
#500=ADVANCED_FACE('',(#490),#50,.T.);
#510=CARTESIAN_POINT('',(-114.5,0.,1.5675479029086E-14));
#520=DIRECTION('',(0.,1.,0.));
#530=DIRECTION('',(1.,-0.,0.));
#540=AXIS2_PLACEMENT_3D('',#510,#520,#530);
#550=PLANE('',#540);
#560=CARTESIAN_POINT('',(-112.,0.,1.5675479029086E-14));
#570=DIRECTION('',(0.,-1.,0.));
#580=DIRECTION('',(-1.,-0.,0.));
#590=AXIS2_PLACEMENT_3D('',#560,#570,#580);
#600=CIRCLE('',#590,2.5);
#610=CARTESIAN_POINT('',(-109.5,1.23234755733392E-14,
1.53693173292992E-14));
#620=VERTEX_POINT('',#610);
#630=CARTESIAN_POINT('',(-114.5,5.21804821573824E-15,1.5675479029086E-14
));
#640=VERTEX_POINT('',#630);
#650=EDGE_CURVE('',#620,#640,#600,.T.);
#660=ORIENTED_EDGE('',*,*,#650,.F.);
#670=EDGE_CURVE('',#640,#620,#600,.T.);
#680=ORIENTED_EDGE('',*,*,#670,.F.);
#690=EDGE_LOOP('',(#680,#660));
#700=FACE_BOUND('',#690,.T.);
#710=CARTESIAN_POINT('',(-112.,0.,1.5675479029086E-14));
#720=DIRECTION('',(0.,1.,0.));
#730=DIRECTION('',(-1.,0.,0.));
#740=AXIS2_PLACEMENT_3D('',#710,#720,#730);
#750=CIRCLE('',#740,5.);
#760=CARTESIAN_POINT('',(-117.,0.,1.50631556295124E-14));
#770=VERTEX_POINT('',#760);
#780=CARTESIAN_POINT('',(-107.,0.,1.5675479029086E-14));
#790=VERTEX_POINT('',#780);
#800=EDGE_CURVE('',#770,#790,#750,.T.);
#810=ORIENTED_EDGE('',*,*,#800,.F.);
#820=EDGE_CURVE('',#790,#770,#750,.T.);
#830=ORIENTED_EDGE('',*,*,#820,.F.);
#840=EDGE_LOOP('',(#830,#810));
#850=FACE_OUTER_BOUND('',#840,.T.);
#860=ADVANCED_FACE('',(#700,#850),#550,.F.);
#870=CARTESIAN_POINT('',(-112.,16.,1.5675479029086E-14));
#880=DIRECTION('',(0.,1.,0.));
#890=DIRECTION('',(1.,-0.,0.));
#900=AXIS2_PLACEMENT_3D('',#870,#880,#890);
#910=CYLINDRICAL_SURFACE('',#900,5.);
#920=CARTESIAN_POINT('',(-107.,16.,1.5675479029086E-14));
#930=DIRECTION('',(0.,1.,0.));
#940=VECTOR('',#930,1.);
#950=LINE('',#920,#940);
#960=EDGE_CURVE('',#790,#340,#950,.T.);
#970=ORIENTED_EDGE('',*,*,#960,.F.);
#980=CARTESIAN_POINT('',(-112.,27.,-4.99999999999999));
#990=VERTEX_POINT('',#980);
#1000=EDGE_CURVE('',#340,#990,#410,.T.);
#1010=ORIENTED_EDGE('',*,*,#1000,.F.);
#1020=EDGE_CURVE('',#990,#110,#410,.T.);
#1030=ORIENTED_EDGE('',*,*,#1020,.F.);
#1040=CARTESIAN_POINT('',(-117.,16.,1.50631556295124E-14));
#1050=DIRECTION('',(0.,1.,0.));
#1060=VECTOR('',#1050,1.);
#1070=LINE('',#1040,#1060);
#1080=EDGE_CURVE('',#770,#110,#1070,.T.);
#1090=ORIENTED_EDGE('',*,*,#1080,.T.);
#1100=ORIENTED_EDGE('',*,*,#820,.T.);
#1110=EDGE_LOOP('',(#1100,#1090,#1030,#1010,#970));
#1120=FACE_OUTER_BOUND('',#1110,.T.);
#1130=ADVANCED_FACE('',(#1120),#910,.T.);
#1140=CARTESIAN_POINT('',(48.,16.,0.));
#1150=DIRECTION('',(0.,1.,0.));
#1160=DIRECTION('',(-1.,0.,0.));
#1170=AXIS2_PLACEMENT_3D('',#1140,#1150,#1160);
#1180=CYLINDRICAL_SURFACE('',#1170,5.);
#1190=CARTESIAN_POINT('',(43.,16.,0.));
#1200=DIRECTION('',(0.,1.,0.));
#1210=VECTOR('',#1200,1.);
#1220=LINE('',#1190,#1210);
#1230=CARTESIAN_POINT('',(43.,0.,0.));
#1240=VERTEX_POINT('',#1230);
#1250=EDGE_CURVE('',#1240,#260,#1220,.T.);
#1260=ORIENTED_EDGE('',*,*,#1250,.F.);
#1270=ORIENTED_EDGE('',*,*,#270,.T.);
#1280=ORIENTED_EDGE('',*,*,#230,.T.);
#1290=CARTESIAN_POINT('',(53.,16.,6.12323399573677E-16));
#1300=DIRECTION('',(0.,1.,0.));
#1310=VECTOR('',#1300,1.);
#1320=LINE('',#1290,#1310);
#1330=CARTESIAN_POINT('',(53.,0.,6.12323399573677E-16));
#1340=VERTEX_POINT('',#1330);
#1350=EDGE_CURVE('',#1340,#130,#1320,.T.);
#1360=ORIENTED_EDGE('',*,*,#1350,.T.);
#1370=CARTESIAN_POINT('',(48.,0.,0.));
#1380=DIRECTION('',(0.,1.,0.));
#1390=DIRECTION('',(1.,0.,0.));
#1400=AXIS2_PLACEMENT_3D('',#1370,#1380,#1390);
#1410=CIRCLE('',#1400,5.);
#1420=EDGE_CURVE('',#1240,#1340,#1410,.T.);
#1430=ORIENTED_EDGE('',*,*,#1420,.T.);
#1440=EDGE_LOOP('',(#1430,#1360,#1280,#1270,#1260));
#1450=FACE_OUTER_BOUND('',#1440,.T.);
#1460=ADVANCED_FACE('',(#1450),#1180,.T.);
#1470=CARTESIAN_POINT('',(50.5,0.,0.));
#1480=DIRECTION('',(0.,1.,-0.));
#1490=DIRECTION('',(-1.,0.,0.));
#1500=AXIS2_PLACEMENT_3D('',#1470,#1480,#1490);
#1510=PLANE('',#1500);
#1520=CARTESIAN_POINT('',(48.,0.,0.));
#1530=DIRECTION('',(0.,-1.,0.));
#1540=DIRECTION('',(-1.,-0.,0.));
#1550=AXIS2_PLACEMENT_3D('',#1520,#1530,#1540);
#1560=CIRCLE('',#1550,2.5);
#1570=CARTESIAN_POINT('',(50.5,-2.22044604925031E-16,
-3.06161699786838E-16));
#1580=VERTEX_POINT('',#1570);
#1590=CARTESIAN_POINT('',(45.5,-2.22044604925031E-16,0.));
#1600=VERTEX_POINT('',#1590);
#1610=EDGE_CURVE('',#1580,#1600,#1560,.T.);
#1620=ORIENTED_EDGE('',*,*,#1610,.F.);
#1630=EDGE_CURVE('',#1600,#1580,#1560,.T.);
#1640=ORIENTED_EDGE('',*,*,#1630,.F.);
#1650=EDGE_LOOP('',(#1640,#1620));
#1660=FACE_BOUND('',#1650,.T.);
#1670=EDGE_CURVE('',#1340,#1240,#1410,.T.);
#1680=ORIENTED_EDGE('',*,*,#1670,.F.);
#1690=ORIENTED_EDGE('',*,*,#1420,.F.);
#1700=EDGE_LOOP('',(#1690,#1680));
#1710=FACE_OUTER_BOUND('',#1700,.T.);
#1720=ADVANCED_FACE('',(#1660,#1710),#1510,.F.);
#1730=CARTESIAN_POINT('',(48.,4.,0.));
#1740=DIRECTION('',(0.,-1.,0.));
#1750=DIRECTION('',(1.,0.,0.));
#1760=AXIS2_PLACEMENT_3D('',#1730,#1740,#1750);
#1770=CYLINDRICAL_SURFACE('',#1760,1.65);
#1780=CARTESIAN_POINT('',(46.35,4.,2.02066721859313E-16));
#1790=DIRECTION('',(0.,-1.,0.));
#1800=VECTOR('',#1790,1.);
#1810=LINE('',#1780,#1800);
#1820=CARTESIAN_POINT('',(46.35,8.,2.02066721859313E-16));
#1830=VERTEX_POINT('',#1820);
#1840=CARTESIAN_POINT('',(46.35,0.85,2.02066721859313E-16));
#1850=VERTEX_POINT('',#1840);
#1860=EDGE_CURVE('',#1830,#1850,#1810,.T.);
#1870=ORIENTED_EDGE('',*,*,#1860,.T.);
#1880=CARTESIAN_POINT('',(48.,8.,0.));
#1890=DIRECTION('',(0.,1.,0.));
#1900=DIRECTION('',(1.,0.,0.));
#1910=AXIS2_PLACEMENT_3D('',#1880,#1890,#1900);
#1920=CIRCLE('',#1910,1.65);
#1930=CARTESIAN_POINT('',(49.65,8.,0.));
#1940=VERTEX_POINT('',#1930);
#1950=EDGE_CURVE('',#1940,#1830,#1920,.T.);
#1960=ORIENTED_EDGE('',*,*,#1950,.T.);
#1970=CARTESIAN_POINT('',(49.65,4.,0.));
#1980=DIRECTION('',(0.,-1.,0.));
#1990=VECTOR('',#1980,1.);
#2000=LINE('',#1970,#1990);
#2010=CARTESIAN_POINT('',(49.65,0.85,0.));
#2020=VERTEX_POINT('',#2010);
#2030=EDGE_CURVE('',#1940,#2020,#2000,.T.);
#2040=ORIENTED_EDGE('',*,*,#2030,.F.);
#2050=CARTESIAN_POINT('',(48.,0.85,0.));
#2060=DIRECTION('',(0.,-1.,0.));
#2070=DIRECTION('',(-1.,-0.,0.));
#2080=AXIS2_PLACEMENT_3D('',#2050,#2060,#2070);
#2090=CIRCLE('',#2080,1.65);
#2100=EDGE_CURVE('',#1850,#2020,#2090,.T.);
#2110=ORIENTED_EDGE('',*,*,#2100,.T.);
#2120=EDGE_LOOP('',(#2110,#2040,#1960,#1870));
#2130=FACE_OUTER_BOUND('',#2120,.T.);
#2140=ADVANCED_FACE('M4_58386',(#2130),#1770,.F.);
#2150=COLOUR_RGB('',1.,0.,0.);
#2160=FILL_AREA_STYLE_COLOUR('',#2150);
#2170=FILL_AREA_STYLE('',(#2160));
#2180=SURFACE_STYLE_FILL_AREA(#2170);
#2190=SURFACE_SIDE_STYLE('',(#2180));
#2200=SURFACE_STYLE_USAGE(.BOTH.,#2190);
#2210=PRESENTATION_STYLE_ASSIGNMENT((#2200));
#2220=CARTESIAN_POINT('',(49.6425,8.,0.));
#2230=DIRECTION('',(0.,-1.,0.));
#2240=DIRECTION('',(1.,0.,0.));
#2250=AXIS2_PLACEMENT_3D('',#2220,#2230,#2240);
#2260=PLANE('',#2250);
#2270=ORIENTED_EDGE('',*,*,#1950,.F.);
#2280=EDGE_CURVE('',#1830,#1940,#1920,.T.);
#2290=ORIENTED_EDGE('',*,*,#2280,.F.);
#2300=EDGE_LOOP('',(#2290,#2270));
#2310=FACE_OUTER_BOUND('',#2300,.T.);
#2320=CARTESIAN_POINT('',(48.,8.,0.));
#2330=DIRECTION('',(0.,1.,0.));
#2340=DIRECTION('',(1.,0.,0.));
#2350=AXIS2_PLACEMENT_3D('',#2320,#2330,#2340);
#2360=CIRCLE('',#2350,1.635);
#2370=CARTESIAN_POINT('',(49.635,8.,0.));
#2380=VERTEX_POINT('',#2370);
#2390=CARTESIAN_POINT('',(46.365,8.,2.00229751660592E-16));
#2400=VERTEX_POINT('',#2390);
#2410=EDGE_CURVE('',#2380,#2400,#2360,.T.);
#2420=ORIENTED_EDGE('',*,*,#2410,.T.);
#2430=EDGE_CURVE('',#2400,#2380,#2360,.T.);
#2440=ORIENTED_EDGE('',*,*,#2430,.T.);
#2450=EDGE_LOOP('',(#2440,#2420));
#2460=FACE_BOUND('',#2450,.T.);
#2470=ADVANCED_FACE('',(#2310,#2460),#2260,.T.);
#2480=CARTESIAN_POINT('',(48.,10.5,0.));
#2490=DIRECTION('',(0.,-1.,0.));
#2500=DIRECTION('',(1.,0.,0.));
#2510=AXIS2_PLACEMENT_3D('',#2480,#2490,#2500);
#2520=CYLINDRICAL_SURFACE('',#2510,1.635);
#2530=CARTESIAN_POINT('',(49.635,10.5,0.));
#2540=DIRECTION('',(0.,-1.,0.));
#2550=VECTOR('',#2540,1.);
#2560=LINE('',#2530,#2550);
#2570=CARTESIAN_POINT('',(49.635,13.,0.));
#2580=VERTEX_POINT('',#2570);
#2590=EDGE_CURVE('',#2580,#2380,#2560,.T.);
#2600=ORIENTED_EDGE('',*,*,#2590,.T.);
#2610=CARTESIAN_POINT('',(48.,13.,0.));
#2620=DIRECTION('',(0.,1.,0.));
#2630=DIRECTION('',(1.,0.,0.));
#2640=AXIS2_PLACEMENT_3D('',#2610,#2620,#2630);
#2650=CIRCLE('',#2640,1.635);
#2660=CARTESIAN_POINT('',(46.365,13.,2.00229751660592E-16));
#2670=VERTEX_POINT('',#2660);
#2680=EDGE_CURVE('',#2670,#2580,#2650,.T.);
#2690=ORIENTED_EDGE('',*,*,#2680,.T.);
#2700=CARTESIAN_POINT('',(46.365,10.5,2.00229751660592E-16));
#2710=DIRECTION('',(0.,-1.,0.));
#2720=VECTOR('',#2710,1.);
#2730=LINE('',#2700,#2720);
#2740=EDGE_CURVE('',#2670,#2400,#2730,.T.);
#2750=ORIENTED_EDGE('',*,*,#2740,.F.);
#2760=ORIENTED_EDGE('',*,*,#2430,.F.);
#2770=EDGE_LOOP('',(#2760,#2750,#2690,#2600));
#2780=FACE_OUTER_BOUND('',#2770,.T.);
#2790=ADVANCED_FACE('',(#2780),#2520,.F.);
#2800=CARTESIAN_POINT('',(48.,13.,0.));
#2810=DIRECTION('',(0.,-1.,0.));
#2820=DIRECTION('',(1.,0.,0.));
#2830=AXIS2_PLACEMENT_3D('',#2800,#2810,#2820);
#2840=CONICAL_SURFACE('',#2830,1.635,1.02974425867666);
#2850=CARTESIAN_POINT('',(49.635,13.,0.));
#2860=DIRECTION('',(0.857167300702112,-0.515038074910054,0.));
#2870=VECTOR('',#2860,1.90744560444706);
#2880=LINE('',#2850,#2870);
#2890=CARTESIAN_POINT('',(48.,13.9824071121101,-2.46519032881566E-32));
#2900=VERTEX_POINT('',#2890);
#2910=EDGE_CURVE('',#2900,#2580,#2880,.T.);
#2920=ORIENTED_EDGE('',*,*,#2910,.T.);
#2930=CARTESIAN_POINT('',(46.365,13.,2.00229751660592E-16));
#2940=DIRECTION('',(-0.857167300702112,-0.515038074910054,
1.04972719113862E-16));
#2950=VECTOR('',#2940,1.90744560444706);
#2960=LINE('',#2930,#2950);
#2970=EDGE_CURVE('',#2900,#2670,#2960,.T.);
#2980=ORIENTED_EDGE('',*,*,#2970,.F.);
#2990=ORIENTED_EDGE('',*,*,#2680,.F.);
#3000=EDGE_LOOP('',(#2990,#2980,#2920));
#3010=FACE_OUTER_BOUND('',#3000,.T.);
#3020=ADVANCED_FACE('',(#3010),#2840,.F.);
#3030=CARTESIAN_POINT('',(-112.,4.,1.5675479029086E-14));
#3040=DIRECTION('',(0.,-1.,0.));
#3050=DIRECTION('',(1.,0.,0.));
#3060=AXIS2_PLACEMENT_3D('',#3030,#3040,#3050);
#3070=CYLINDRICAL_SURFACE('',#3060,1.65);
#3080=CARTESIAN_POINT('',(-113.65,4.,1.58775457509454E-14));
#3090=DIRECTION('',(0.,-1.,0.));
#3100=VECTOR('',#3090,1.);
#3110=LINE('',#3080,#3100);
#3120=CARTESIAN_POINT('',(-113.65,8.,1.58775457509454E-14));
#3130=VERTEX_POINT('',#3120);
#3140=CARTESIAN_POINT('',(-113.65,0.85,1.58775457509454E-14));
#3150=VERTEX_POINT('',#3140);
#3160=EDGE_CURVE('',#3130,#3150,#3110,.T.);
#3170=ORIENTED_EDGE('',*,*,#3160,.T.);
#3180=CARTESIAN_POINT('',(-112.,8.,1.5675479029086E-14));
#3190=DIRECTION('',(0.,1.,0.));
#3200=DIRECTION('',(1.,0.,0.));
#3210=AXIS2_PLACEMENT_3D('',#3180,#3190,#3200);
#3220=CIRCLE('',#3210,1.65);
#3230=CARTESIAN_POINT('',(-110.35,8.,1.5675479029086E-14));
#3240=VERTEX_POINT('',#3230);
#3250=EDGE_CURVE('',#3240,#3130,#3220,.T.);
#3260=ORIENTED_EDGE('',*,*,#3250,.T.);
#3270=CARTESIAN_POINT('',(-110.35,4.,1.5675479029086E-14));
#3280=DIRECTION('',(0.,-1.,0.));
#3290=VECTOR('',#3280,1.);
#3300=LINE('',#3270,#3290);
#3310=CARTESIAN_POINT('',(-110.35,0.850000000000006,1.5675479029086E-14)
);
#3320=VERTEX_POINT('',#3310);
#3330=EDGE_CURVE('',#3240,#3320,#3300,.T.);
#3340=ORIENTED_EDGE('',*,*,#3330,.F.);
#3350=CARTESIAN_POINT('',(-112.,0.85,1.5675479029086E-14));
#3360=DIRECTION('',(0.,-1.,0.));
#3370=DIRECTION('',(-1.,-0.,0.));
#3380=AXIS2_PLACEMENT_3D('',#3350,#3360,#3370);
#3390=CIRCLE('',#3380,1.65);
#3400=EDGE_CURVE('',#3150,#3320,#3390,.T.);
#3410=ORIENTED_EDGE('',*,*,#3400,.T.);
#3420=EDGE_LOOP('',(#3410,#3340,#3260,#3170));
#3430=FACE_OUTER_BOUND('',#3420,.T.);
#3440=ADVANCED_FACE('M4_59703',(#3430),#3070,.F.);
#3450=COLOUR_RGB('',1.,0.,0.);
#3460=FILL_AREA_STYLE_COLOUR('',#3450);
#3470=FILL_AREA_STYLE('',(#3460));
#3480=SURFACE_STYLE_FILL_AREA(#3470);
#3490=SURFACE_SIDE_STYLE('',(#3480));
#3500=SURFACE_STYLE_USAGE(.BOTH.,#3490);
#3510=PRESENTATION_STYLE_ASSIGNMENT((#3500));
#3520=CARTESIAN_POINT('',(-110.3575,8.,1.5675479029086E-14));
#3530=DIRECTION('',(0.,-1.,0.));
#3540=DIRECTION('',(1.,0.,0.));
#3550=AXIS2_PLACEMENT_3D('',#3520,#3530,#3540);
#3560=PLANE('',#3550);
#3570=CARTESIAN_POINT('',(-112.,8.,1.5675479029086E-14));
#3580=DIRECTION('',(0.,1.,0.));
#3590=DIRECTION('',(1.,0.,0.));
#3600=AXIS2_PLACEMENT_3D('',#3570,#3580,#3590);
#3610=CIRCLE('',#3600,1.635);
#3620=CARTESIAN_POINT('',(-110.365,8.,1.5675479029086E-14));
#3630=VERTEX_POINT('',#3620);
#3640=CARTESIAN_POINT('',(-113.635,8.,1.58757087807466E-14));
#3650=VERTEX_POINT('',#3640);
#3660=EDGE_CURVE('',#3630,#3650,#3610,.T.);
#3670=ORIENTED_EDGE('',*,*,#3660,.T.);
#3680=EDGE_CURVE('',#3650,#3630,#3610,.T.);
#3690=ORIENTED_EDGE('',*,*,#3680,.T.);
#3700=EDGE_LOOP('',(#3690,#3670));
#3710=FACE_BOUND('',#3700,.T.);
#3720=ORIENTED_EDGE('',*,*,#3250,.F.);
#3730=EDGE_CURVE('',#3130,#3240,#3220,.T.);
#3740=ORIENTED_EDGE('',*,*,#3730,.F.);
#3750=EDGE_LOOP('',(#3740,#3720));
#3760=FACE_OUTER_BOUND('',#3750,.T.);
#3770=ADVANCED_FACE('',(#3710,#3760),#3560,.T.);
#3780=CARTESIAN_POINT('',(-112.,10.5,1.5675479029086E-14));
#3790=DIRECTION('',(0.,-1.,0.));
#3800=DIRECTION('',(1.,0.,0.));
#3810=AXIS2_PLACEMENT_3D('',#3780,#3790,#3800);
#3820=CYLINDRICAL_SURFACE('',#3810,1.635);
#3830=CARTESIAN_POINT('',(-110.365,10.5,1.5675479029086E-14));
#3840=DIRECTION('',(0.,-1.,0.));
#3850=VECTOR('',#3840,1.);
#3860=LINE('',#3830,#3850);
#3870=CARTESIAN_POINT('',(-110.365,13.,1.5675479029086E-14));
#3880=VERTEX_POINT('',#3870);
#3890=EDGE_CURVE('',#3880,#3630,#3860,.T.);
#3900=ORIENTED_EDGE('',*,*,#3890,.T.);
#3910=CARTESIAN_POINT('',(-112.,13.,1.5675479029086E-14));
#3920=DIRECTION('',(0.,1.,0.));
#3930=DIRECTION('',(1.,0.,0.));
#3940=AXIS2_PLACEMENT_3D('',#3910,#3920,#3930);
#3950=CIRCLE('',#3940,1.635);
#3960=CARTESIAN_POINT('',(-113.635,13.,1.58757087807466E-14));
#3970=VERTEX_POINT('',#3960);
#3980=EDGE_CURVE('',#3970,#3880,#3950,.T.);
#3990=ORIENTED_EDGE('',*,*,#3980,.T.);
#4000=CARTESIAN_POINT('',(-113.635,10.5,1.58757087807466E-14));
#4010=DIRECTION('',(0.,-1.,0.));
#4020=VECTOR('',#4010,1.);
#4030=LINE('',#4000,#4020);
#4040=EDGE_CURVE('',#3970,#3650,#4030,.T.);
#4050=ORIENTED_EDGE('',*,*,#4040,.F.);
#4060=ORIENTED_EDGE('',*,*,#3680,.F.);
#4070=EDGE_LOOP('',(#4060,#4050,#3990,#3900));
#4080=FACE_OUTER_BOUND('',#4070,.T.);
#4090=ADVANCED_FACE('',(#4080),#3820,.F.);
#4100=CARTESIAN_POINT('',(-112.,13.,1.5675479029086E-14));
#4110=DIRECTION('',(0.,-1.,0.));
#4120=DIRECTION('',(1.,0.,0.));
#4130=AXIS2_PLACEMENT_3D('',#4100,#4110,#4120);
#4140=CONICAL_SURFACE('',#4130,1.635,1.02974425867666);
#4150=CARTESIAN_POINT('',(-110.365,13.,1.5675479029086E-14));
#4160=DIRECTION('',(0.857167300702113,-0.515038074910053,0.));
#4170=VECTOR('',#4160,1.90744560444707);
#4180=LINE('',#4150,#4170);
#4190=CARTESIAN_POINT('',(-112.,13.9824071121101,1.5675479029086E-14));
#4200=VERTEX_POINT('',#4190);
#4210=EDGE_CURVE('',#4200,#3880,#4180,.T.);
#4220=ORIENTED_EDGE('',*,*,#4210,.T.);
#4230=CARTESIAN_POINT('',(-113.635,13.,1.58757087807466E-14));
#4240=DIRECTION('',(-0.857167300702113,-0.515038074910053,
1.04972719113862E-16));
#4250=VECTOR('',#4240,1.90744560444707);
#4260=LINE('',#4230,#4250);
#4270=EDGE_CURVE('',#4200,#3970,#4260,.T.);
#4280=ORIENTED_EDGE('',*,*,#4270,.F.);
#4290=ORIENTED_EDGE('',*,*,#3980,.F.);
#4300=EDGE_LOOP('',(#4290,#4280,#4220));
#4310=FACE_OUTER_BOUND('',#4300,.T.);
#4320=ADVANCED_FACE('',(#4310),#4140,.F.);
#4330=CARTESIAN_POINT('',(-112.,0.85,1.5675479029086E-14));
#4340=DIRECTION('',(0.,-1.,0.));
#4350=DIRECTION('',(-1.,-0.,0.));
#4360=AXIS2_PLACEMENT_3D('',#4330,#4340,#4350);
#4370=CONICAL_SURFACE('',#4360,1.65,0.785398163397449);
#4380=CARTESIAN_POINT('',(-110.35,0.85,1.54734123072267E-14));
#4390=DIRECTION('',(0.70710678118655,-0.707106781186546,
-8.65956056235489E-17));
#4400=VECTOR('',#4390,2.33345237791561);
#4410=LINE('',#4380,#4400);
#4420=EDGE_CURVE('',#3320,#620,#4410,.T.);
#4430=ORIENTED_EDGE('',*,*,#4420,.F.);
#4440=ORIENTED_EDGE('',*,*,#670,.T.);
#4450=CARTESIAN_POINT('',(-113.65,0.85,1.5675479029086E-14));
#4460=DIRECTION('',(-0.70710678118655,-0.707106781186546,0.));
#4470=VECTOR('',#4460,2.33345237791561);
#4480=LINE('',#4450,#4470);
#4490=EDGE_CURVE('',#3150,#640,#4480,.T.);
#4500=ORIENTED_EDGE('',*,*,#4490,.T.);
#4510=ORIENTED_EDGE('',*,*,#3400,.F.);
#4520=EDGE_LOOP('',(#4510,#4500,#4440,#4430));
#4530=FACE_OUTER_BOUND('',#4520,.T.);
#4540=ADVANCED_FACE('',(#4530),#4370,.F.);
#4550=CARTESIAN_POINT('',(48.,0.85,0.));
#4560=DIRECTION('',(0.,-1.,0.));
#4570=DIRECTION('',(-1.,-0.,0.));
#4580=AXIS2_PLACEMENT_3D('',#4550,#4560,#4570);
#4590=CONICAL_SURFACE('',#4580,1.65,0.785398163397449);
#4600=CARTESIAN_POINT('',(49.65,0.85,-2.02066721859313E-16));
#4610=DIRECTION('',(0.707106781186548,-0.707106781186547,
-8.65956056235494E-17));
#4620=VECTOR('',#4610,2.3334523779156);
#4630=LINE('',#4600,#4620);
#4640=EDGE_CURVE('',#2020,#1580,#4630,.T.);
#4650=ORIENTED_EDGE('',*,*,#4640,.F.);
#4660=ORIENTED_EDGE('',*,*,#1630,.T.);
#4670=CARTESIAN_POINT('',(46.35,0.85,0.));
#4680=DIRECTION('',(-0.707106781186548,-0.707106781186547,0.));
#4690=VECTOR('',#4680,2.3334523779156);
#4700=LINE('',#4670,#4690);
#4710=EDGE_CURVE('',#1850,#1600,#4700,.T.);
#4720=ORIENTED_EDGE('',*,*,#4710,.T.);
#4730=ORIENTED_EDGE('',*,*,#2100,.F.);
#4740=EDGE_LOOP('',(#4730,#4720,#4660,#4650));
#4750=FACE_OUTER_BOUND('',#4740,.T.);
#4760=ADVANCED_FACE('',(#4750),#4590,.F.);
#4770=CARTESIAN_POINT('',(-112.,13.,1.5675479029086E-14));
#4780=DIRECTION('',(0.,-1.,0.));
#4790=DIRECTION('',(1.,0.,0.));
#4800=AXIS2_PLACEMENT_3D('',#4770,#4780,#4790);
#4810=CONICAL_SURFACE('',#4800,1.635,1.02974425867666);
#4820=ORIENTED_EDGE('',*,*,#4210,.F.);
#4830=EDGE_CURVE('',#3880,#3970,#3950,.T.);
#4840=ORIENTED_EDGE('',*,*,#4830,.F.);
#4850=ORIENTED_EDGE('',*,*,#4270,.T.);
#4860=EDGE_LOOP('',(#4850,#4840,#4820));
#4870=FACE_OUTER_BOUND('',#4860,.T.);
#4880=ADVANCED_FACE('',(#4870),#4810,.F.);
#4890=CARTESIAN_POINT('',(48.,13.,0.));
#4900=DIRECTION('',(0.,-1.,0.));
#4910=DIRECTION('',(1.,0.,0.));
#4920=AXIS2_PLACEMENT_3D('',#4890,#4900,#4910);
#4930=CONICAL_SURFACE('',#4920,1.635,1.02974425867666);
#4940=ORIENTED_EDGE('',*,*,#2910,.F.);
#4950=EDGE_CURVE('',#2580,#2670,#2650,.T.);
#4960=ORIENTED_EDGE('',*,*,#4950,.F.);
#4970=ORIENTED_EDGE('',*,*,#2970,.T.);
#4980=EDGE_LOOP('',(#4970,#4960,#4940));
#4990=FACE_OUTER_BOUND('',#4980,.T.);
#5000=ADVANCED_FACE('',(#4990),#4930,.F.);
#5010=CARTESIAN_POINT('',(48.,0.85,0.));
#5020=DIRECTION('',(0.,-1.,0.));
#5030=DIRECTION('',(-1.,-0.,0.));
#5040=AXIS2_PLACEMENT_3D('',#5010,#5020,#5030);
#5050=CONICAL_SURFACE('',#5040,1.65,0.785398163397449);
#5060=ORIENTED_EDGE('',*,*,#1610,.T.);
#5070=ORIENTED_EDGE('',*,*,#4640,.T.);
#5080=EDGE_CURVE('',#2020,#1850,#2090,.T.);
#5090=ORIENTED_EDGE('',*,*,#5080,.F.);
#5100=ORIENTED_EDGE('',*,*,#4710,.F.);
#5110=EDGE_LOOP('',(#5100,#5090,#5070,#5060));
#5120=FACE_OUTER_BOUND('',#5110,.T.);
#5130=ADVANCED_FACE('',(#5120),#5050,.F.);
#5140=CARTESIAN_POINT('',(48.,16.,0.));
#5150=DIRECTION('',(0.,1.,0.));
#5160=DIRECTION('',(-1.,0.,0.));
#5170=AXIS2_PLACEMENT_3D('',#5140,#5150,#5160);
#5180=CYLINDRICAL_SURFACE('',#5170,5.);
#5190=ORIENTED_EDGE('',*,*,#1670,.T.);
#5200=ORIENTED_EDGE('',*,*,#1350,.F.);
#5210=CARTESIAN_POINT('',(48.,27.,-5.));
#5220=VERTEX_POINT('',#5210);
#5230=EDGE_CURVE('',#5220,#130,#200,.T.);
#5240=ORIENTED_EDGE('',*,*,#5230,.T.);
#5250=EDGE_CURVE('',#260,#5220,#200,.T.);
#5260=ORIENTED_EDGE('',*,*,#5250,.T.);
#5270=ORIENTED_EDGE('',*,*,#1250,.T.);
#5280=EDGE_LOOP('',(#5270,#5260,#5240,#5200,#5190));
#5290=FACE_OUTER_BOUND('',#5280,.T.);
#5300=ADVANCED_FACE('',(#5290),#5180,.T.);
#5310=CARTESIAN_POINT('',(-112.,10.5,1.5675479029086E-14));
#5320=DIRECTION('',(0.,-1.,0.));
#5330=DIRECTION('',(1.,0.,0.));
#5340=AXIS2_PLACEMENT_3D('',#5310,#5320,#5330);
#5350=CYLINDRICAL_SURFACE('',#5340,1.635);
#5360=ORIENTED_EDGE('',*,*,#3660,.F.);
#5370=ORIENTED_EDGE('',*,*,#4040,.T.);
#5380=ORIENTED_EDGE('',*,*,#4830,.T.);
#5390=ORIENTED_EDGE('',*,*,#3890,.F.);
#5400=EDGE_LOOP('',(#5390,#5380,#5370,#5360));
#5410=FACE_OUTER_BOUND('',#5400,.T.);
#5420=ADVANCED_FACE('',(#5410),#5350,.F.);
#5430=CARTESIAN_POINT('',(48.,4.,0.));
#5440=DIRECTION('',(0.,-1.,0.));
#5450=DIRECTION('',(1.,0.,0.));
#5460=AXIS2_PLACEMENT_3D('',#5430,#5440,#5450);
#5470=CYLINDRICAL_SURFACE('',#5460,1.65);
#5480=ORIENTED_EDGE('',*,*,#1860,.F.);
#5490=ORIENTED_EDGE('',*,*,#5080,.T.);
#5500=ORIENTED_EDGE('',*,*,#2030,.T.);
#5510=ORIENTED_EDGE('',*,*,#2280,.T.);
#5520=EDGE_LOOP('',(#5510,#5500,#5490,#5480));
#5530=FACE_OUTER_BOUND('',#5520,.T.);
#5540=ADVANCED_FACE('',(#5530),#5470,.F.);
#5550=COLOUR_RGB('',1.,0.,0.);
#5560=FILL_AREA_STYLE_COLOUR('',#5550);
#5570=FILL_AREA_STYLE('',(#5560));
#5580=SURFACE_STYLE_FILL_AREA(#5570);
#5590=SURFACE_SIDE_STYLE('',(#5580));
#5600=SURFACE_STYLE_USAGE(.BOTH.,#5590);
#5610=PRESENTATION_STYLE_ASSIGNMENT((#5600));
#5620=CARTESIAN_POINT('',(-112.,0.85,1.5675479029086E-14));
#5630=DIRECTION('',(0.,-1.,0.));
#5640=DIRECTION('',(-1.,-0.,0.));
#5650=AXIS2_PLACEMENT_3D('',#5620,#5630,#5640);
#5660=CONICAL_SURFACE('',#5650,1.65,0.785398163397449);
#5670=ORIENTED_EDGE('',*,*,#650,.T.);
#5680=ORIENTED_EDGE('',*,*,#4420,.T.);
#5690=EDGE_CURVE('',#3320,#3150,#3390,.T.);
#5700=ORIENTED_EDGE('',*,*,#5690,.F.);
#5710=ORIENTED_EDGE('',*,*,#4490,.F.);
#5720=EDGE_LOOP('',(#5710,#5700,#5680,#5670));
#5730=FACE_OUTER_BOUND('',#5720,.T.);
#5740=ADVANCED_FACE('',(#5730),#5660,.F.);
#5750=CARTESIAN_POINT('',(-112.,16.,1.5675479029086E-14));
#5760=DIRECTION('',(0.,1.,0.));
#5770=DIRECTION('',(1.,-0.,0.));
#5780=AXIS2_PLACEMENT_3D('',#5750,#5760,#5770);
#5790=CYLINDRICAL_SURFACE('',#5780,5.);
#5800=ORIENTED_EDGE('',*,*,#440,.F.);
#5810=ORIENTED_EDGE('',*,*,#960,.T.);
#5820=ORIENTED_EDGE('',*,*,#800,.T.);
#5830=ORIENTED_EDGE('',*,*,#1080,.F.);
#5840=ORIENTED_EDGE('',*,*,#460,.F.);
#5850=EDGE_LOOP('',(#5840,#5830,#5820,#5810,#5800));
#5860=FACE_OUTER_BOUND('',#5850,.T.);
#5870=ADVANCED_FACE('',(#5860),#5790,.T.);
#5880=CARTESIAN_POINT('',(-112.,4.,1.5675479029086E-14));
#5890=DIRECTION('',(0.,-1.,0.));
#5900=DIRECTION('',(1.,0.,0.));
#5910=AXIS2_PLACEMENT_3D('',#5880,#5890,#5900);
#5920=CYLINDRICAL_SURFACE('',#5910,1.65);
#5930=ORIENTED_EDGE('',*,*,#3160,.F.);
#5940=ORIENTED_EDGE('',*,*,#5690,.T.);
#5950=ORIENTED_EDGE('',*,*,#3330,.T.);
#5960=ORIENTED_EDGE('',*,*,#3730,.T.);
#5970=EDGE_LOOP('',(#5960,#5950,#5940,#5930));
#5980=FACE_OUTER_BOUND('',#5970,.T.);
#5990=ADVANCED_FACE('',(#5980),#5920,.F.);
#6000=COLOUR_RGB('',1.,0.,0.);
#6010=FILL_AREA_STYLE_COLOUR('',#6000);
#6020=FILL_AREA_STYLE('',(#6010));
#6030=SURFACE_STYLE_FILL_AREA(#6020);
#6040=SURFACE_SIDE_STYLE('',(#6030));
#6050=SURFACE_STYLE_USAGE(.BOTH.,#6040);
#6060=PRESENTATION_STYLE_ASSIGNMENT((#6050));
#6070=CARTESIAN_POINT('',(48.,10.5,0.));
#6080=DIRECTION('',(0.,-1.,0.));
#6090=DIRECTION('',(1.,0.,0.));
#6100=AXIS2_PLACEMENT_3D('',#6070,#6080,#6090);
#6110=CYLINDRICAL_SURFACE('',#6100,1.635);
#6120=ORIENTED_EDGE('',*,*,#2410,.F.);
#6130=ORIENTED_EDGE('',*,*,#2740,.T.);
#6140=ORIENTED_EDGE('',*,*,#4950,.T.);
#6150=ORIENTED_EDGE('',*,*,#2590,.F.);
#6160=EDGE_LOOP('',(#6150,#6140,#6130,#6120));
#6170=FACE_OUTER_BOUND('',#6160,.T.);
#6180=ADVANCED_FACE('',(#6170),#6110,.F.);
#6190=CARTESIAN_POINT('',(0.,27.,0.));
#6200=DIRECTION('',(1.,-0.,-0.));
#6210=DIRECTION('',(-0.,-1.,0.));
#6220=AXIS2_PLACEMENT_3D('',#6190,#6200,#6210);
#6230=CYLINDRICAL_SURFACE('',#6220,5.);
#6240=ORIENTED_EDGE('',*,*,#5250,.F.);
#6250=ORIENTED_EDGE('',*,*,#5230,.F.);
#6260=ORIENTED_EDGE('',*,*,#140,.T.);
#6270=ORIENTED_EDGE('',*,*,#1020,.T.);
#6280=ORIENTED_EDGE('',*,*,#1000,.T.);
#6290=ORIENTED_EDGE('',*,*,#350,.F.);
#6300=EDGE_LOOP('',(#6290,#6280,#6270,#6260,#6250,#6240));
#6310=FACE_OUTER_BOUND('',#6300,.T.);
#6320=ADVANCED_FACE('',(#6310),#6230,.T.);
#6330=CLOSED_SHELL('',(#500,#860,#1130,#1460,#1720,#2140,#2470,#2790,
#3020,#3440,#3770,#4090,#4320,#4540,#4760,#4880,#5000,#5130,#5300,#5420,
#5540,#5740,#5870,#5990,#6180,#6320));
#6340=MANIFOLD_SOLID_BREP('',#6330);
#6350=CARTESIAN_POINT('',(0.,0.,0.));
#6360=DIRECTION('',(0.,0.,1.));
#6370=DIRECTION('',(1.,0.,0.));
#6380=AXIS2_PLACEMENT_3D('',#6350,#6360,#6370);
#6390=APPLICATION_CONTEXT(' ');
#6400=APPLICATION_PROTOCOL_DEFINITION(' ','automotive_design',1998,#6390
);
#6410=PRODUCT_CONTEXT('',#6390,'mechanical');
#6420=PRODUCT_DEFINITION_CONTEXT('part definition',#6390,'design');
#6430=PRODUCT('2423H-170','2423H-170','',(#6410));
#6440=PRODUCT_RELATED_PRODUCT_CATEGORY('part',' ',(#6430));
#6450=PRODUCT_DEFINITION_FORMATION_WITH_SPECIFIED_SOURCE('','',#6430,
.BOUGHT.);
#6460=PRODUCT_DEFINITION('',' ',#6450,#6420);
#6470=PRODUCT_DEFINITION_SHAPE('','',#6460);
#6480=DIMENSIONAL_EXPONENTS(1.,0.,0.,0.,0.,0.,0.);
#6490=DIMENSIONAL_EXPONENTS(0.,0.,0.,0.,0.,0.,0.);
#6500=DIMENSIONAL_EXPONENTS(0.,0.,0.,0.,0.,0.,0.);
#6510=(LENGTH_UNIT() NAMED_UNIT(*) SI_UNIT(.MILLI.,.METRE.));
#6520=(NAMED_UNIT(*) PLANE_ANGLE_UNIT() SI_UNIT($,.RADIAN.));
#6530=(NAMED_UNIT(*) SI_UNIT($,.STERADIAN.) SOLID_ANGLE_UNIT());
#6540=(GEOMETRIC_REPRESENTATION_CONTEXT(3) 
GLOBAL_UNCERTAINTY_ASSIGNED_CONTEXT((#6550)) 
GLOBAL_UNIT_ASSIGNED_CONTEXT((#6510,#6520,#6530)) REPRESENTATION_CONTEXT
('',''));
#6550=UNCERTAINTY_MEASURE_WITH_UNIT(LENGTH_MEASURE(1.E-6),#6510,
'distance_accuracy_value','maximum gap value');
#6560=ADVANCED_BREP_SHAPE_REPRESENTATION('',(#6380,#6340),#6540);
#6570=SHAPE_DEFINITION_REPRESENTATION(#6470,#6560);
#6580=COLOUR_RGB('',0.600000023841858,0.600000023841858,
0.600000023841858);
#6590=FILL_AREA_STYLE_COLOUR('',#6580);
#6600=FILL_AREA_STYLE('',(#6590));
#6610=SURFACE_STYLE_FILL_AREA(#6600);
#6620=SURFACE_SIDE_STYLE('',(#6610));
#6630=SURFACE_STYLE_USAGE(.BOTH.,#6620);
#6640=PRESENTATION_STYLE_ASSIGNMENT((#6630));
#6650=STYLED_ITEM('',(#6640),#6340);
#6660=OVER_RIDING_STYLED_ITEM('',(#2210),#2140,#6650);
#6670=OVER_RIDING_STYLED_ITEM('',(#3510),#3440,#6650);
#6680=OVER_RIDING_STYLED_ITEM('',(#5610),#5540,#6650);
#6690=OVER_RIDING_STYLED_ITEM('',(#6060),#5990,#6650);
#6700=DRAUGHTING_MODEL('',(#6650,#6660,#6670,#6680,#6690),#6540);
ENDSEC;
END-ISO-10303-21;
