ISO-10303-21;
HEADER;
FILE_DESCRIPTION(('Creo Elements/Direct Modeling STEP Export'),'2;1');
FILE_NAME('2419-25.stp','2022-01-26T11:31:29',(''),(''),
'Creo Elements/Direct Modeling STEP processor for AP214 (Solid Model)',
'Creo Elements/Direct Modeling 20.0  12-Nov-2016 (C) Parametric Technolo
gy GmbH','');
FILE_SCHEMA(('AUTOMOTIVE_DESIGN { 1 0 10303 214 1 1 1 1 }'));
ENDSEC;
DATA;
#10=CARTESIAN_POINT('',(0.,41.7503676470588,0.));
#20=DIRECTION('',(0.,1.,0.));
#30=DIRECTION('',(1.,0.,0.));
#40=AXIS2_PLACEMENT_3D('',#10,#20,#30);
#50=SPHERICAL_SURFACE('',#40,17.1503676470588);
#60=CARTESIAN_POINT('',(0.,41.7503676470588,0.));
#70=DIRECTION('',(0.,0.,-1.));
#80=DIRECTION('',(1.,-0.,0.));
#90=AXIS2_PLACEMENT_3D('',#60,#70,#80);
#100=CIRCLE('',#90,17.1503676470588);
#110=CARTESIAN_POINT('',(10.25,28.,0.));
#120=VERTEX_POINT('',#110);
#130=CARTESIAN_POINT('',(1.05015714215855E-15,24.6,0.));
#140=VERTEX_POINT('',#130);
#150=EDGE_CURVE('',#120,#140,#100,.T.);
#160=ORIENTED_EDGE('',*,*,#150,.F.);
#170=CARTESIAN_POINT('',(-10.25,28.,0.));
#180=VERTEX_POINT('',#170);
#190=EDGE_CURVE('',#140,#180,#100,.T.);
#200=ORIENTED_EDGE('',*,*,#190,.F.);
#210=CARTESIAN_POINT('',(0.,28.,0.));
#220=DIRECTION('',(0.,1.,0.));
#230=DIRECTION('',(-1.,0.,0.));
#240=AXIS2_PLACEMENT_3D('',#210,#220,#230);
#250=CIRCLE('',#240,10.25);
#260=EDGE_CURVE('',#120,#180,#250,.T.);
#270=ORIENTED_EDGE('',*,*,#260,.T.);
#280=EDGE_LOOP('',(#270,#200,#160));
#290=FACE_OUTER_BOUND('',#280,.T.);
#300=ADVANCED_FACE('',(#290),#50,.F.);
#310=CARTESIAN_POINT('',(0.,25.5,0.));
#320=DIRECTION('',(0.,-1.,0.));
#330=DIRECTION('',(-1.,0.,0.));
#340=AXIS2_PLACEMENT_3D('',#310,#320,#330);
#350=CYLINDRICAL_SURFACE('',#340,12.35);
#360=CARTESIAN_POINT('',(12.35,25.5,-1.51243879694698E-15));
#370=DIRECTION('',(0.,-1.,0.));
#380=VECTOR('',#370,1.);
#390=LINE('',#360,#380);
#400=CARTESIAN_POINT('',(12.35,25.7,-1.51243879694698E-15));
#410=VERTEX_POINT('',#400);
#420=CARTESIAN_POINT('',(12.35,25.3,0.));
#430=VERTEX_POINT('',#420);
#440=EDGE_CURVE('',#410,#430,#390,.T.);
#450=ORIENTED_EDGE('',*,*,#440,.T.);
#460=CARTESIAN_POINT('',(0.,25.7,0.));
#470=DIRECTION('',(0.,1.,0.));
#480=DIRECTION('',(-1.,0.,0.));
#490=AXIS2_PLACEMENT_3D('',#460,#470,#480);
#500=CIRCLE('',#490,12.35);
#510=CARTESIAN_POINT('',(-12.35,25.7,0.));
#520=VERTEX_POINT('',#510);
#530=EDGE_CURVE('',#410,#520,#500,.T.);
#540=ORIENTED_EDGE('',*,*,#530,.F.);
#550=CARTESIAN_POINT('',(-12.35,25.5,0.));
#560=DIRECTION('',(0.,-1.,0.));
#570=VECTOR('',#560,1.);
#580=LINE('',#550,#570);
#590=CARTESIAN_POINT('',(-12.35,25.3,0.));
#600=VERTEX_POINT('',#590);
#610=EDGE_CURVE('',#520,#600,#580,.T.);
#620=ORIENTED_EDGE('',*,*,#610,.F.);
#630=CARTESIAN_POINT('',(0.,25.3,0.));
#640=DIRECTION('',(0.,1.,0.));
#650=DIRECTION('',(-1.,0.,0.));
#660=AXIS2_PLACEMENT_3D('',#630,#640,#650);
#670=CIRCLE('',#660,12.35);
#680=EDGE_CURVE('',#430,#600,#670,.T.);
#690=ORIENTED_EDGE('',*,*,#680,.T.);
#700=EDGE_LOOP('',(#690,#620,#540,#450));
#710=FACE_OUTER_BOUND('',#700,.T.);
#720=ADVANCED_FACE('',(#710),#350,.T.);
#730=CARTESIAN_POINT('',(0.,25.7,0.));
#740=DIRECTION('',(0.,-1.,0.));
#750=DIRECTION('',(-1.,0.,0.));
#760=AXIS2_PLACEMENT_3D('',#730,#740,#750);
#770=CONICAL_SURFACE('',#760,12.35,0.680678408277789);
#780=CARTESIAN_POINT('',(12.35,25.7,-1.51243879694698E-15));
#790=DIRECTION('',(0.629320391049838,-0.777145961456971,
-7.70695202537344E-17));
#800=VECTOR('',#790,19.624344253962);
#810=LINE('',#780,#800);
#820=CARTESIAN_POINT('',(10.4874967236515,28.,-1.28434792936881E-15));
#830=VERTEX_POINT('',#820);
#840=EDGE_CURVE('',#830,#410,#810,.T.);
#850=ORIENTED_EDGE('',*,*,#840,.T.);
#860=CARTESIAN_POINT('',(0.,28.,0.));
#870=DIRECTION('',(0.,1.,0.));
#880=DIRECTION('',(-1.,0.,0.));
#890=AXIS2_PLACEMENT_3D('',#860,#870,#880);
#900=CIRCLE('',#890,10.4874967236515);
#910=CARTESIAN_POINT('',(-10.4874967236515,28.,0.));
#920=VERTEX_POINT('',#910);
#930=EDGE_CURVE('',#830,#920,#900,.T.);
#940=ORIENTED_EDGE('',*,*,#930,.F.);
#950=CARTESIAN_POINT('',(-12.35,25.7,0.));
#960=DIRECTION('',(-0.629320391049838,-0.777145961456971,0.));
#970=VECTOR('',#960,19.624344253962);
#980=LINE('',#950,#970);
#990=EDGE_CURVE('',#920,#520,#980,.T.);
#1000=ORIENTED_EDGE('',*,*,#990,.F.);
#1010=ORIENTED_EDGE('',*,*,#530,.T.);
#1020=EDGE_LOOP('',(#1010,#1000,#940,#850));
#1030=FACE_OUTER_BOUND('',#1020,.T.);
#1040=ADVANCED_FACE('',(#1030),#770,.T.);
#1050=CARTESIAN_POINT('',(-10.3687483618257,28.,0.));
#1060=DIRECTION('',(-0.,-1.,-0.));
#1070=DIRECTION('',(-1.,0.,0.));
#1080=AXIS2_PLACEMENT_3D('',#1050,#1060,#1070);
#1090=PLANE('',#1080);
#1100=EDGE_CURVE('',#920,#830,#900,.T.);
#1110=ORIENTED_EDGE('',*,*,#1100,.T.);
#1120=ORIENTED_EDGE('',*,*,#930,.T.);
#1130=EDGE_LOOP('',(#1120,#1110));
#1140=FACE_OUTER_BOUND('',#1130,.T.);
#1150=EDGE_CURVE('',#180,#120,#250,.T.);
#1160=ORIENTED_EDGE('',*,*,#1150,.F.);
#1170=ORIENTED_EDGE('',*,*,#260,.F.);
#1180=EDGE_LOOP('',(#1170,#1160));
#1190=FACE_BOUND('',#1180,.T.);
#1200=ADVANCED_FACE('',(#1140,#1190),#1090,.F.);
#1210=CARTESIAN_POINT('',(0.,12.5,0.));
#1220=DIRECTION('',(0.,1.,0.));
#1230=DIRECTION('',(-1.,0.,0.));
#1240=AXIS2_PLACEMENT_3D('',#1210,#1220,#1230);
#1250=TOROIDAL_SURFACE('',#1240,22.7295081967213,16.4795081967213);
#1260=CARTESIAN_POINT('',(22.7295081967213,12.5,0.));
#1270=DIRECTION('',(0.,0.,-1.));
#1280=DIRECTION('',(-1.,0.,0.));
#1290=AXIS2_PLACEMENT_3D('',#1260,#1270,#1280);
#1300=CIRCLE('',#1290,16.4795081967213);
#1310=CARTESIAN_POINT('',(6.25,12.5,0.));
#1320=VERTEX_POINT('',#1310);
#1330=EDGE_CURVE('',#1320,#430,#1300,.T.);
#1340=ORIENTED_EDGE('',*,*,#1330,.F.);
#1350=ORIENTED_EDGE('',*,*,#680,.F.);
#1360=CARTESIAN_POINT('',(-22.7295081967213,12.5,0.));
#1370=DIRECTION('',(0.,0.,1.));
#1380=DIRECTION('',(1.,0.,0.));
#1390=AXIS2_PLACEMENT_3D('',#1360,#1370,#1380);
#1400=CIRCLE('',#1390,16.4795081967213);
#1410=CARTESIAN_POINT('',(-6.25,12.5,0.));
#1420=VERTEX_POINT('',#1410);
#1430=EDGE_CURVE('',#1420,#600,#1400,.T.);
#1440=ORIENTED_EDGE('',*,*,#1430,.T.);
#1450=CARTESIAN_POINT('',(0.,12.5,0.));
#1460=DIRECTION('',(0.,1.,0.));
#1470=DIRECTION('',(-1.,0.,0.));
#1480=AXIS2_PLACEMENT_3D('',#1450,#1460,#1470);
#1490=CIRCLE('',#1480,6.25);
#1500=EDGE_CURVE('',#1320,#1420,#1490,.T.);
#1510=ORIENTED_EDGE('',*,*,#1500,.T.);
#1520=EDGE_LOOP('',(#1510,#1440,#1350,#1340));
#1530=FACE_OUTER_BOUND('',#1520,.T.);
#1540=ADVANCED_FACE('',(#1530),#1250,.F.);
#1550=CARTESIAN_POINT('',(0.,6.25,0.));
#1560=DIRECTION('',(0.,-1.,0.));
#1570=DIRECTION('',(-1.,0.,0.));
#1580=AXIS2_PLACEMENT_3D('',#1550,#1560,#1570);
#1590=CYLINDRICAL_SURFACE('',#1580,6.25);
#1600=CARTESIAN_POINT('',(6.25,6.25,-7.65404249467096E-16));
#1610=DIRECTION('',(0.,-1.,0.));
#1620=VECTOR('',#1610,1.);
#1630=LINE('',#1600,#1620);
#1640=CARTESIAN_POINT('',(6.25,0.,-7.65404249467096E-16));
#1650=VERTEX_POINT('',#1640);
#1660=EDGE_CURVE('',#1320,#1650,#1630,.T.);
#1670=ORIENTED_EDGE('',*,*,#1660,.T.);
#1680=ORIENTED_EDGE('',*,*,#1500,.F.);
#1690=CARTESIAN_POINT('',(-6.25,6.25,0.));
#1700=DIRECTION('',(0.,-1.,0.));
#1710=VECTOR('',#1700,1.);
#1720=LINE('',#1690,#1710);
#1730=CARTESIAN_POINT('',(-6.25,0.,0.));
#1740=VERTEX_POINT('',#1730);
#1750=EDGE_CURVE('',#1420,#1740,#1720,.T.);
#1760=ORIENTED_EDGE('',*,*,#1750,.F.);
#1770=CARTESIAN_POINT('',(0.,0.,0.));
#1780=DIRECTION('',(0.,1.,0.));
#1790=DIRECTION('',(-1.,0.,0.));
#1800=AXIS2_PLACEMENT_3D('',#1770,#1780,#1790);
#1810=CIRCLE('',#1800,6.25);
#1820=EDGE_CURVE('',#1650,#1740,#1810,.T.);
#1830=ORIENTED_EDGE('',*,*,#1820,.T.);
#1840=EDGE_LOOP('',(#1830,#1760,#1680,#1670));
#1850=FACE_OUTER_BOUND('',#1840,.T.);
#1860=ADVANCED_FACE('',(#1850),#1590,.T.);
#1870=CARTESIAN_POINT('',(-3.125,0.,0.));
#1880=DIRECTION('',(-0.,1.,0.));
#1890=DIRECTION('',(1.,0.,0.));
#1900=AXIS2_PLACEMENT_3D('',#1870,#1880,#1890);
#1910=PLANE('',#1900);
#1920=CARTESIAN_POINT('',(0.,0.,0.));
#1930=DIRECTION('',(0.,-1.,0.));
#1940=DIRECTION('',(-1.,0.,0.));
#1950=AXIS2_PLACEMENT_3D('',#1920,#1930,#1940);
#1960=CIRCLE('',#1950,2.5);
#1970=CARTESIAN_POINT('',(2.5,0.,-3.06161699786838E-16));
#1980=VERTEX_POINT('',#1970);
#1990=CARTESIAN_POINT('',(-2.5,-2.22044604925031E-16,0.));
#2000=VERTEX_POINT('',#1990);
#2010=EDGE_CURVE('',#1980,#2000,#1960,.T.);
#2020=ORIENTED_EDGE('',*,*,#2010,.F.);
#2030=EDGE_CURVE('',#2000,#1980,#1960,.T.);
#2040=ORIENTED_EDGE('',*,*,#2030,.F.);
#2050=EDGE_LOOP('',(#2040,#2020));
#2060=FACE_BOUND('',#2050,.T.);
#2070=EDGE_CURVE('',#1740,#1650,#1810,.T.);
#2080=ORIENTED_EDGE('',*,*,#2070,.F.);
#2090=ORIENTED_EDGE('',*,*,#1820,.F.);
#2100=EDGE_LOOP('',(#2090,#2080));
#2110=FACE_OUTER_BOUND('',#2100,.T.);
#2120=ADVANCED_FACE('',(#2060,#2110),#1910,.F.);
#2130=CARTESIAN_POINT('',(0.,3.5,0.));
#2140=DIRECTION('',(0.,-1.,0.));
#2150=DIRECTION('',(1.,0.,0.));
#2160=AXIS2_PLACEMENT_3D('',#2130,#2140,#2150);
#2170=CYLINDRICAL_SURFACE('',#2160,1.65);
#2180=CARTESIAN_POINT('',(-1.65,3.5,2.02066721859313E-16));
#2190=DIRECTION('',(0.,-1.,0.));
#2200=VECTOR('',#2190,1.);
#2210=LINE('',#2180,#2200);
#2220=CARTESIAN_POINT('',(-1.65,7.,2.02066721859313E-16));
#2230=VERTEX_POINT('',#2220);
#2240=CARTESIAN_POINT('',(-1.65,0.85,2.02066721859313E-16));
#2250=VERTEX_POINT('',#2240);
#2260=EDGE_CURVE('',#2230,#2250,#2210,.T.);
#2270=ORIENTED_EDGE('',*,*,#2260,.T.);
#2280=CARTESIAN_POINT('',(0.,7.,0.));
#2290=DIRECTION('',(0.,1.,0.));
#2300=DIRECTION('',(1.,0.,0.));
#2310=AXIS2_PLACEMENT_3D('',#2280,#2290,#2300);
#2320=CIRCLE('',#2310,1.65);
#2330=CARTESIAN_POINT('',(1.65,7.,0.));
#2340=VERTEX_POINT('',#2330);
#2350=EDGE_CURVE('',#2340,#2230,#2320,.T.);
#2360=ORIENTED_EDGE('',*,*,#2350,.T.);
#2370=CARTESIAN_POINT('',(1.65,3.5,0.));
#2380=DIRECTION('',(0.,-1.,0.));
#2390=VECTOR('',#2380,1.);
#2400=LINE('',#2370,#2390);
#2410=CARTESIAN_POINT('',(1.65,0.850000000000001,0.));
#2420=VERTEX_POINT('',#2410);
#2430=EDGE_CURVE('',#2340,#2420,#2400,.T.);
#2440=ORIENTED_EDGE('',*,*,#2430,.F.);
#2450=CARTESIAN_POINT('',(0.,0.85,0.));
#2460=DIRECTION('',(0.,-1.,0.));
#2470=DIRECTION('',(-1.,0.,0.));
#2480=AXIS2_PLACEMENT_3D('',#2450,#2460,#2470);
#2490=CIRCLE('',#2480,1.65);
#2500=EDGE_CURVE('',#2250,#2420,#2490,.T.);
#2510=ORIENTED_EDGE('',*,*,#2500,.T.);
#2520=EDGE_LOOP('',(#2510,#2440,#2360,#2270));
#2530=FACE_OUTER_BOUND('',#2520,.T.);
#2540=ADVANCED_FACE('M4_71707',(#2530),#2170,.F.);
#2550=COLOUR_RGB('',1.,0.,0.);
#2560=FILL_AREA_STYLE_COLOUR('',#2550);
#2570=FILL_AREA_STYLE('',(#2560));
#2580=SURFACE_STYLE_FILL_AREA(#2570);
#2590=SURFACE_SIDE_STYLE('',(#2580));
#2600=SURFACE_STYLE_USAGE(.BOTH.,#2590);
#2610=PRESENTATION_STYLE_ASSIGNMENT((#2600));
#2620=CARTESIAN_POINT('',(1.6425,7.,0.));
#2630=DIRECTION('',(0.,-1.,0.));
#2640=DIRECTION('',(1.,0.,0.));
#2650=AXIS2_PLACEMENT_3D('',#2620,#2630,#2640);
#2660=PLANE('',#2650);
#2670=ORIENTED_EDGE('',*,*,#2350,.F.);
#2680=EDGE_CURVE('',#2230,#2340,#2320,.T.);
#2690=ORIENTED_EDGE('',*,*,#2680,.F.);
#2700=EDGE_LOOP('',(#2690,#2670));
#2710=FACE_OUTER_BOUND('',#2700,.T.);
#2720=CARTESIAN_POINT('',(0.,7.,0.));
#2730=DIRECTION('',(0.,1.,0.));
#2740=DIRECTION('',(1.,0.,0.));
#2750=AXIS2_PLACEMENT_3D('',#2720,#2730,#2740);
#2760=CIRCLE('',#2750,1.635);
#2770=CARTESIAN_POINT('',(1.635,7.,0.));
#2780=VERTEX_POINT('',#2770);
#2790=CARTESIAN_POINT('',(-1.635,7.,2.00229751660592E-16));
#2800=VERTEX_POINT('',#2790);
#2810=EDGE_CURVE('',#2780,#2800,#2760,.T.);
#2820=ORIENTED_EDGE('',*,*,#2810,.T.);
#2830=EDGE_CURVE('',#2800,#2780,#2760,.T.);
#2840=ORIENTED_EDGE('',*,*,#2830,.T.);
#2850=EDGE_LOOP('',(#2840,#2820));
#2860=FACE_BOUND('',#2850,.T.);
#2870=ADVANCED_FACE('',(#2710,#2860),#2660,.T.);
#2880=CARTESIAN_POINT('',(0.,8.5,0.));
#2890=DIRECTION('',(0.,-1.,0.));
#2900=DIRECTION('',(1.,0.,0.));
#2910=AXIS2_PLACEMENT_3D('',#2880,#2890,#2900);
#2920=CYLINDRICAL_SURFACE('',#2910,1.635);
#2930=CARTESIAN_POINT('',(1.635,8.5,0.));
#2940=DIRECTION('',(0.,-1.,0.));
#2950=VECTOR('',#2940,1.);
#2960=LINE('',#2930,#2950);
#2970=CARTESIAN_POINT('',(1.635,10.,0.));
#2980=VERTEX_POINT('',#2970);
#2990=EDGE_CURVE('',#2980,#2780,#2960,.T.);
#3000=ORIENTED_EDGE('',*,*,#2990,.T.);
#3010=CARTESIAN_POINT('',(0.,10.,0.));
#3020=DIRECTION('',(0.,1.,0.));
#3030=DIRECTION('',(1.,0.,0.));
#3040=AXIS2_PLACEMENT_3D('',#3010,#3020,#3030);
#3050=CIRCLE('',#3040,1.635);
#3060=CARTESIAN_POINT('',(-1.635,10.,2.00229751660592E-16));
#3070=VERTEX_POINT('',#3060);
#3080=EDGE_CURVE('',#3070,#2980,#3050,.T.);
#3090=ORIENTED_EDGE('',*,*,#3080,.T.);
#3100=CARTESIAN_POINT('',(-1.635,8.5,2.00229751660592E-16));
#3110=DIRECTION('',(0.,-1.,0.));
#3120=VECTOR('',#3110,1.);
#3130=LINE('',#3100,#3120);
#3140=EDGE_CURVE('',#3070,#2800,#3130,.T.);
#3150=ORIENTED_EDGE('',*,*,#3140,.F.);
#3160=ORIENTED_EDGE('',*,*,#2830,.F.);
#3170=EDGE_LOOP('',(#3160,#3150,#3090,#3000));
#3180=FACE_OUTER_BOUND('',#3170,.T.);
#3190=ADVANCED_FACE('',(#3180),#2920,.F.);
#3200=CARTESIAN_POINT('',(0.,10.,0.));
#3210=DIRECTION('',(0.,-1.,0.));
#3220=DIRECTION('',(1.,0.,0.));
#3230=AXIS2_PLACEMENT_3D('',#3200,#3210,#3220);
#3240=CONICAL_SURFACE('',#3230,1.635,1.02974425867666);
#3250=CARTESIAN_POINT('',(1.635,10.,0.));
#3260=DIRECTION('',(0.857167300702113,-0.515038074910054,0.));
#3270=VECTOR('',#3260,1.90744560444706);
#3280=LINE('',#3250,#3270);
#3290=CARTESIAN_POINT('',(-2.22044604925031E-16,10.9824071121101,
2.46519032881566E-32));
#3300=VERTEX_POINT('',#3290);
#3310=EDGE_CURVE('',#3300,#2980,#3280,.T.);
#3320=ORIENTED_EDGE('',*,*,#3310,.T.);
#3330=CARTESIAN_POINT('',(-1.635,10.,2.00229751660592E-16));
#3340=DIRECTION('',(-0.857167300702113,-0.515038074910054,
1.04972719113862E-16));
#3350=VECTOR('',#3340,1.90744560444706);
#3360=LINE('',#3330,#3350);
#3370=EDGE_CURVE('',#3300,#3070,#3360,.T.);
#3380=ORIENTED_EDGE('',*,*,#3370,.F.);
#3390=ORIENTED_EDGE('',*,*,#3080,.F.);
#3400=EDGE_LOOP('',(#3390,#3380,#3320));
#3410=FACE_OUTER_BOUND('',#3400,.T.);
#3420=ADVANCED_FACE('',(#3410),#3240,.F.);
#3430=CARTESIAN_POINT('',(0.,0.85,0.));
#3440=DIRECTION('',(0.,-1.,0.));
#3450=DIRECTION('',(-1.,0.,0.));
#3460=AXIS2_PLACEMENT_3D('',#3430,#3440,#3450);
#3470=CONICAL_SURFACE('',#3460,1.65,0.785398163397448);
#3480=CARTESIAN_POINT('',(1.65,0.85,-2.02066721859313E-16));
#3490=DIRECTION('',(0.707106781186548,-0.707106781186548,
-8.65956056235493E-17));
#3500=VECTOR('',#3490,2.33345237791561);
#3510=LINE('',#3480,#3500);
#3520=EDGE_CURVE('',#2420,#1980,#3510,.T.);
#3530=ORIENTED_EDGE('',*,*,#3520,.F.);
#3540=ORIENTED_EDGE('',*,*,#2030,.T.);
#3550=CARTESIAN_POINT('',(-1.65,0.85,0.));
#3560=DIRECTION('',(-0.707106781186548,-0.707106781186548,0.));
#3570=VECTOR('',#3560,2.33345237791561);
#3580=LINE('',#3550,#3570);
#3590=EDGE_CURVE('',#2250,#2000,#3580,.T.);
#3600=ORIENTED_EDGE('',*,*,#3590,.T.);
#3610=ORIENTED_EDGE('',*,*,#2500,.F.);
#3620=EDGE_LOOP('',(#3610,#3600,#3540,#3530));
#3630=FACE_OUTER_BOUND('',#3620,.T.);
#3640=ADVANCED_FACE('',(#3630),#3470,.F.);
#3650=CARTESIAN_POINT('',(0.,25.7,0.));
#3660=DIRECTION('',(0.,-1.,0.));
#3670=DIRECTION('',(-1.,0.,0.));
#3680=AXIS2_PLACEMENT_3D('',#3650,#3660,#3670);
#3690=CONICAL_SURFACE('',#3680,12.35,0.680678408277789);
#3700=ORIENTED_EDGE('',*,*,#1100,.F.);
#3710=ORIENTED_EDGE('',*,*,#840,.F.);
#3720=EDGE_CURVE('',#520,#410,#500,.T.);
#3730=ORIENTED_EDGE('',*,*,#3720,.T.);
#3740=ORIENTED_EDGE('',*,*,#990,.T.);
#3750=EDGE_LOOP('',(#3740,#3730,#3710,#3700));
#3760=FACE_OUTER_BOUND('',#3750,.T.);
#3770=ADVANCED_FACE('',(#3760),#3690,.T.);
#3780=CARTESIAN_POINT('',(0.,8.5,0.));
#3790=DIRECTION('',(0.,-1.,0.));
#3800=DIRECTION('',(1.,0.,0.));
#3810=AXIS2_PLACEMENT_3D('',#3780,#3790,#3800);
#3820=CYLINDRICAL_SURFACE('',#3810,1.635);
#3830=ORIENTED_EDGE('',*,*,#2810,.F.);
#3840=ORIENTED_EDGE('',*,*,#3140,.T.);
#3850=EDGE_CURVE('',#2980,#3070,#3050,.T.);
#3860=ORIENTED_EDGE('',*,*,#3850,.T.);
#3870=ORIENTED_EDGE('',*,*,#2990,.F.);
#3880=EDGE_LOOP('',(#3870,#3860,#3840,#3830));
#3890=FACE_OUTER_BOUND('',#3880,.T.);
#3900=ADVANCED_FACE('',(#3890),#3820,.F.);
#3910=CARTESIAN_POINT('',(0.,25.5,0.));
#3920=DIRECTION('',(0.,-1.,0.));
#3930=DIRECTION('',(-1.,0.,0.));
#3940=AXIS2_PLACEMENT_3D('',#3910,#3920,#3930);
#3950=CYLINDRICAL_SURFACE('',#3940,12.35);
#3960=ORIENTED_EDGE('',*,*,#3720,.F.);
#3970=ORIENTED_EDGE('',*,*,#440,.F.);
#3980=EDGE_CURVE('',#600,#430,#670,.T.);
#3990=ORIENTED_EDGE('',*,*,#3980,.T.);
#4000=ORIENTED_EDGE('',*,*,#610,.T.);
#4010=EDGE_LOOP('',(#4000,#3990,#3970,#3960));
#4020=FACE_OUTER_BOUND('',#4010,.T.);
#4030=ADVANCED_FACE('',(#4020),#3950,.T.);
#4040=CARTESIAN_POINT('',(0.,3.5,0.));
#4050=DIRECTION('',(0.,-1.,0.));
#4060=DIRECTION('',(1.,0.,0.));
#4070=AXIS2_PLACEMENT_3D('',#4040,#4050,#4060);
#4080=CYLINDRICAL_SURFACE('',#4070,1.65);
#4090=ORIENTED_EDGE('',*,*,#2260,.F.);
#4100=EDGE_CURVE('',#2420,#2250,#2490,.T.);
#4110=ORIENTED_EDGE('',*,*,#4100,.T.);
#4120=ORIENTED_EDGE('',*,*,#2430,.T.);
#4130=ORIENTED_EDGE('',*,*,#2680,.T.);
#4140=EDGE_LOOP('',(#4130,#4120,#4110,#4090));
#4150=FACE_OUTER_BOUND('',#4140,.T.);
#4160=ADVANCED_FACE('',(#4150),#4080,.F.);
#4170=COLOUR_RGB('',1.,0.,0.);
#4180=FILL_AREA_STYLE_COLOUR('',#4170);
#4190=FILL_AREA_STYLE('',(#4180));
#4200=SURFACE_STYLE_FILL_AREA(#4190);
#4210=SURFACE_SIDE_STYLE('',(#4200));
#4220=SURFACE_STYLE_USAGE(.BOTH.,#4210);
#4230=PRESENTATION_STYLE_ASSIGNMENT((#4220));
#4240=CARTESIAN_POINT('',(0.,0.85,0.));
#4250=DIRECTION('',(0.,-1.,0.));
#4260=DIRECTION('',(-1.,0.,0.));
#4270=AXIS2_PLACEMENT_3D('',#4240,#4250,#4260);
#4280=CONICAL_SURFACE('',#4270,1.65,0.785398163397448);
#4290=ORIENTED_EDGE('',*,*,#2010,.T.);
#4300=ORIENTED_EDGE('',*,*,#3520,.T.);
#4310=ORIENTED_EDGE('',*,*,#4100,.F.);
#4320=ORIENTED_EDGE('',*,*,#3590,.F.);
#4330=EDGE_LOOP('',(#4320,#4310,#4300,#4290));
#4340=FACE_OUTER_BOUND('',#4330,.T.);
#4350=ADVANCED_FACE('',(#4340),#4280,.F.);
#4360=CARTESIAN_POINT('',(0.,6.25,0.));
#4370=DIRECTION('',(0.,-1.,0.));
#4380=DIRECTION('',(-1.,0.,0.));
#4390=AXIS2_PLACEMENT_3D('',#4360,#4370,#4380);
#4400=CYLINDRICAL_SURFACE('',#4390,6.25);
#4410=EDGE_CURVE('',#1420,#1320,#1490,.T.);
#4420=ORIENTED_EDGE('',*,*,#4410,.F.);
#4430=ORIENTED_EDGE('',*,*,#1660,.F.);
#4440=ORIENTED_EDGE('',*,*,#2070,.T.);
#4450=ORIENTED_EDGE('',*,*,#1750,.T.);
#4460=EDGE_LOOP('',(#4450,#4440,#4430,#4420));
#4470=FACE_OUTER_BOUND('',#4460,.T.);
#4480=ADVANCED_FACE('',(#4470),#4400,.T.);
#4490=CARTESIAN_POINT('',(0.,10.,0.));
#4500=DIRECTION('',(0.,-1.,0.));
#4510=DIRECTION('',(1.,0.,0.));
#4520=AXIS2_PLACEMENT_3D('',#4490,#4500,#4510);
#4530=CONICAL_SURFACE('',#4520,1.635,1.02974425867666);
#4540=ORIENTED_EDGE('',*,*,#3310,.F.);
#4550=ORIENTED_EDGE('',*,*,#3850,.F.);
#4560=ORIENTED_EDGE('',*,*,#3370,.T.);
#4570=EDGE_LOOP('',(#4560,#4550,#4540));
#4580=FACE_OUTER_BOUND('',#4570,.T.);
#4590=ADVANCED_FACE('',(#4580),#4530,.F.);
#4600=CARTESIAN_POINT('',(0.,41.7503676470588,0.));
#4610=DIRECTION('',(0.,1.,0.));
#4620=DIRECTION('',(1.,0.,0.));
#4630=AXIS2_PLACEMENT_3D('',#4600,#4610,#4620);
#4640=SPHERICAL_SURFACE('',#4630,17.1503676470588);
#4650=ORIENTED_EDGE('',*,*,#1150,.T.);
#4660=ORIENTED_EDGE('',*,*,#190,.T.);
#4670=ORIENTED_EDGE('',*,*,#150,.T.);
#4680=EDGE_LOOP('',(#4670,#4660,#4650));
#4690=FACE_OUTER_BOUND('',#4680,.T.);
#4700=ADVANCED_FACE('',(#4690),#4640,.F.);
#4710=CARTESIAN_POINT('',(0.,12.5,0.));
#4720=DIRECTION('',(0.,1.,0.));
#4730=DIRECTION('',(-1.,0.,0.));
#4740=AXIS2_PLACEMENT_3D('',#4710,#4720,#4730);
#4750=TOROIDAL_SURFACE('',#4740,22.7295081967213,16.4795081967213);
#4760=ORIENTED_EDGE('',*,*,#3980,.F.);
#4770=ORIENTED_EDGE('',*,*,#1330,.T.);
#4780=ORIENTED_EDGE('',*,*,#4410,.T.);
#4790=ORIENTED_EDGE('',*,*,#1430,.F.);
#4800=EDGE_LOOP('',(#4790,#4780,#4770,#4760));
#4810=FACE_OUTER_BOUND('',#4800,.T.);
#4820=ADVANCED_FACE('',(#4810),#4750,.F.);
#4830=CLOSED_SHELL('',(#300,#720,#1040,#1200,#1540,#1860,#2120,#2540,
#2870,#3190,#3420,#3640,#3770,#3900,#4030,#4160,#4350,#4480,#4590,#4700,
#4820));
#4840=MANIFOLD_SOLID_BREP('',#4830);
#4850=CARTESIAN_POINT('',(0.,0.,0.));
#4860=DIRECTION('',(0.,0.,1.));
#4870=DIRECTION('',(1.,0.,0.));
#4880=AXIS2_PLACEMENT_3D('',#4850,#4860,#4870);
#4890=APPLICATION_CONTEXT(' ');
#4900=APPLICATION_PROTOCOL_DEFINITION(' ','automotive_design',1998,#4890
);
#4910=PRODUCT_CONTEXT('',#4890,'mechanical');
#4920=PRODUCT_DEFINITION_CONTEXT('part definition',#4890,'design');
#4930=PRODUCT('NI-10318','NI-10318','',(#4910));
#4940=PRODUCT_RELATED_PRODUCT_CATEGORY('part',' ',(#4930));
#4950=PRODUCT_DEFINITION_FORMATION_WITH_SPECIFIED_SOURCE('','',#4930,
.BOUGHT.);
#4960=PRODUCT_DEFINITION('',' ',#4950,#4920);
#4970=PRODUCT_DEFINITION_SHAPE('','',#4960);
#4980=DIMENSIONAL_EXPONENTS(1.,0.,0.,0.,0.,0.,0.);
#4990=DIMENSIONAL_EXPONENTS(0.,0.,0.,0.,0.,0.,0.);
#5000=DIMENSIONAL_EXPONENTS(0.,0.,0.,0.,0.,0.,0.);
#5010=(LENGTH_UNIT() NAMED_UNIT(*) SI_UNIT(.MILLI.,.METRE.));
#5020=(NAMED_UNIT(*) PLANE_ANGLE_UNIT() SI_UNIT($,.RADIAN.));
#5030=(NAMED_UNIT(*) SI_UNIT($,.STERADIAN.) SOLID_ANGLE_UNIT());
#5040=(GEOMETRIC_REPRESENTATION_CONTEXT(3) 
GLOBAL_UNCERTAINTY_ASSIGNED_CONTEXT((#5050)) 
GLOBAL_UNIT_ASSIGNED_CONTEXT((#5010,#5020,#5030)) REPRESENTATION_CONTEXT
('',''));
#5050=UNCERTAINTY_MEASURE_WITH_UNIT(LENGTH_MEASURE(1.E-6),#5010,
'distance_accuracy_value','maximum gap value');
#5060=ADVANCED_BREP_SHAPE_REPRESENTATION('',(#4880,#4840),#5040);
#5070=SHAPE_DEFINITION_REPRESENTATION(#4970,#5060);
#5080=COLOUR_RGB('',0.600000023841858,0.600000023841858,
0.600000023841858);
#5090=FILL_AREA_STYLE_COLOUR('',#5080);
#5100=FILL_AREA_STYLE('',(#5090));
#5110=SURFACE_STYLE_FILL_AREA(#5100);
#5120=SURFACE_SIDE_STYLE('',(#5110));
#5130=SURFACE_STYLE_USAGE(.BOTH.,#5120);
#5140=PRESENTATION_STYLE_ASSIGNMENT((#5130));
#5150=STYLED_ITEM('',(#5140),#4840);
#5160=OVER_RIDING_STYLED_ITEM('',(#2610),#2540,#5150);
#5170=OVER_RIDING_STYLED_ITEM('',(#4230),#4160,#5150);
#5180=DRAUGHTING_MODEL('',(#5150,#5160,#5170),#5040);
#5190=CARTESIAN_POINT('',(50.,0.,0.));
#5200=DIRECTION('',(0.,0.,1.));
#5210=DIRECTION('',(1.,0.,0.));
#5220=AXIS2_PLACEMENT_3D('',#5190,#5200,#5210);
#5230=ITEM_DEFINED_TRANSFORMATION('NI-10318','',#4880,#5220);
#5240=APPLICATION_CONTEXT(' ');
#5250=APPLICATION_PROTOCOL_DEFINITION(' ','automotive_design',1998,#5240
);
#5260=PRODUCT_CONTEXT('',#5240,'mechanical');
#5270=PRODUCT_DEFINITION_CONTEXT('part definition',#5240,'design');
#5280=PRODUCT('NI-10318','NI-10318','',(#5260));
#5290=PRODUCT_RELATED_PRODUCT_CATEGORY('part',' ',(#5280));
#5300=PRODUCT_DEFINITION_FORMATION_WITH_SPECIFIED_SOURCE('','',#5280,
.BOUGHT.);
#5310=PRODUCT_DEFINITION('',' ',#5300,#5270);
#5320=PRODUCT_DEFINITION_SHAPE('','',#5310);
#5330=DIMENSIONAL_EXPONENTS(1.,0.,0.,0.,0.,0.,0.);
#5340=DIMENSIONAL_EXPONENTS(0.,0.,0.,0.,0.,0.,0.);
#5350=DIMENSIONAL_EXPONENTS(0.,0.,0.,0.,0.,0.,0.);
#5360=(LENGTH_UNIT() NAMED_UNIT(*) SI_UNIT(.MILLI.,.METRE.));
#5370=(NAMED_UNIT(*) PLANE_ANGLE_UNIT() SI_UNIT($,.RADIAN.));
#5380=(NAMED_UNIT(*) SI_UNIT($,.STERADIAN.) SOLID_ANGLE_UNIT());
#5390=(GEOMETRIC_REPRESENTATION_CONTEXT(3) 
GLOBAL_UNCERTAINTY_ASSIGNED_CONTEXT((#5400)) 
GLOBAL_UNIT_ASSIGNED_CONTEXT((#5360,#5370,#5380)) REPRESENTATION_CONTEXT
('',''));
#5400=UNCERTAINTY_MEASURE_WITH_UNIT(LENGTH_MEASURE(1.E-6),#5360,
'distance_accuracy_value','maximum gap value');
#5410=SHAPE_REPRESENTATION('',(#4880,#5220),#5390);
#5420=SHAPE_DEFINITION_REPRESENTATION(#5320,#5410);
#5430=(REPRESENTATION_RELATIONSHIP('','',#5060,#5410) 
REPRESENTATION_RELATIONSHIP_WITH_TRANSFORMATION(#5230) 
SHAPE_REPRESENTATION_RELATIONSHIP());
#5440=NEXT_ASSEMBLY_USAGE_OCCURRENCE('1','','NI-10318',#5310,#4960,'');
#5450=PRODUCT_DEFINITION_SHAPE('','',#5440);
#5460=CONTEXT_DEPENDENT_SHAPE_REPRESENTATION(#5430,#5450);
ENDSEC;
END-ISO-10303-21;
