ISO-10303-21;
HEADER;
FILE_DESCRIPTION(('Creo Elements/Direct Modeling STEP Export'),'2;1');
FILE_NAME('2419-20.stp','2022-01-26T11:31:02',(''),(''),
'Creo Elements/Direct Modeling STEP processor for AP214 (Solid Model)',
'Creo Elements/Direct Modeling 20.0  12-Nov-2016 (C) Parametric Technolo
gy GmbH','');
FILE_SCHEMA(('AUTOMOTIVE_DESIGN { 1 0 10303 214 1 1 1 1 }'));
ENDSEC;
DATA;
#10=CARTESIAN_POINT('',(0.,7.34417804807032,0.));
#20=DIRECTION('',(0.,1.,0.));
#30=DIRECTION('',(1.,0.,0.));
#40=AXIS2_PLACEMENT_3D('',#10,#20,#30);
#50=CYLINDRICAL_SURFACE('',#40,5.);
#60=CARTESIAN_POINT('',(-5.,7.34417804807032,-6.12323399573677E-16));
#70=DIRECTION('',(0.,1.,0.));
#80=VECTOR('',#70,1.);
#90=LINE('',#60,#80);
#100=CARTESIAN_POINT('',(-5.,0.,-6.12323399573677E-16));
#110=VERTEX_POINT('',#100);
#120=CARTESIAN_POINT('',(-5.,16.2,0.));
#130=VERTEX_POINT('',#120);
#140=EDGE_CURVE('',#110,#130,#90,.T.);
#150=ORIENTED_EDGE('',*,*,#140,.T.);
#160=CARTESIAN_POINT('',(0.,0.,0.));
#170=DIRECTION('',(0.,1.,0.));
#180=DIRECTION('',(-1.,0.,0.));
#190=AXIS2_PLACEMENT_3D('',#160,#170,#180);
#200=CIRCLE('',#190,5.);
#210=CARTESIAN_POINT('',(5.,0.,0.));
#220=VERTEX_POINT('',#210);
#230=EDGE_CURVE('',#220,#110,#200,.T.);
#240=ORIENTED_EDGE('',*,*,#230,.T.);
#250=CARTESIAN_POINT('',(5.,7.34417804807032,0.));
#260=DIRECTION('',(0.,1.,0.));
#270=VECTOR('',#260,1.);
#280=LINE('',#250,#270);
#290=CARTESIAN_POINT('',(5.,16.2,0.));
#300=VERTEX_POINT('',#290);
#310=EDGE_CURVE('',#220,#300,#280,.T.);
#320=ORIENTED_EDGE('',*,*,#310,.F.);
#330=CARTESIAN_POINT('',(0.,16.2,0.));
#340=DIRECTION('',(0.,1.,0.));
#350=DIRECTION('',(-1.,0.,0.));
#360=AXIS2_PLACEMENT_3D('',#330,#340,#350);
#370=CIRCLE('',#360,5.);
#380=EDGE_CURVE('',#300,#130,#370,.T.);
#390=ORIENTED_EDGE('',*,*,#380,.F.);
#400=EDGE_LOOP('',(#390,#320,#240,#150));
#410=FACE_OUTER_BOUND('',#400,.T.);
#420=ADVANCED_FACE('',(#410),#50,.T.);
#430=CARTESIAN_POINT('',(-7.62604669424553,28.,0.));
#440=DIRECTION('',(-0.,-1.,-0.));
#450=DIRECTION('',(-1.,0.,0.));
#460=AXIS2_PLACEMENT_3D('',#430,#440,#450);
#470=PLANE('',#460);
#480=CARTESIAN_POINT('',(0.,28.,0.));
#490=DIRECTION('',(0.,1.,0.));
#500=DIRECTION('',(-1.,0.,0.));
#510=AXIS2_PLACEMENT_3D('',#480,#490,#500);
#520=CIRCLE('',#510,7.85209338849107);
#530=CARTESIAN_POINT('',(-7.85209338849107,28.,0.));
#540=VERTEX_POINT('',#530);
#550=CARTESIAN_POINT('',(7.85209338849107,28.,-9.61604103482169E-16));
#560=VERTEX_POINT('',#550);
#570=EDGE_CURVE('',#540,#560,#520,.T.);
#580=ORIENTED_EDGE('',*,*,#570,.T.);
#590=EDGE_CURVE('',#560,#540,#520,.T.);
#600=ORIENTED_EDGE('',*,*,#590,.T.);
#610=EDGE_LOOP('',(#600,#580));
#620=FACE_OUTER_BOUND('',#610,.T.);
#630=CARTESIAN_POINT('',(0.,28.,0.));
#640=DIRECTION('',(0.,1.,0.));
#650=DIRECTION('',(-1.,0.,0.));
#660=AXIS2_PLACEMENT_3D('',#630,#640,#650);
#670=CIRCLE('',#660,7.4);
#680=CARTESIAN_POINT('',(-7.4,28.,0.));
#690=VERTEX_POINT('',#680);
#700=CARTESIAN_POINT('',(7.4,28.,0.));
#710=VERTEX_POINT('',#700);
#720=EDGE_CURVE('',#690,#710,#670,.T.);
#730=ORIENTED_EDGE('',*,*,#720,.F.);
#740=EDGE_CURVE('',#710,#690,#670,.T.);
#750=ORIENTED_EDGE('',*,*,#740,.F.);
#760=EDGE_LOOP('',(#750,#730));
#770=FACE_BOUND('',#760,.T.);
#780=ADVANCED_FACE('',(#620,#770),#470,.F.);
#790=CARTESIAN_POINT('',(0.,38.2083333333333,0.));
#800=DIRECTION('',(0.,1.,0.));
#810=DIRECTION('',(1.,0.,0.));
#820=AXIS2_PLACEMENT_3D('',#790,#800,#810);
#830=SPHERICAL_SURFACE('',#820,12.6083333333333);
#840=CARTESIAN_POINT('',(0.,38.2083333333333,0.));
#850=DIRECTION('',(0.,0.,-1.));
#860=DIRECTION('',(1.,-0.,0.));
#870=AXIS2_PLACEMENT_3D('',#840,#850,#860);
#880=CIRCLE('',#870,12.6083333333333);
#890=CARTESIAN_POINT('',(7.72037752962478E-16,25.6,0.));
#900=VERTEX_POINT('',#890);
#910=EDGE_CURVE('',#710,#900,#880,.T.);
#920=ORIENTED_EDGE('',*,*,#910,.F.);
#930=EDGE_CURVE('',#900,#690,#880,.T.);
#940=ORIENTED_EDGE('',*,*,#930,.F.);
#950=ORIENTED_EDGE('',*,*,#740,.T.);
#960=EDGE_LOOP('',(#950,#940,#920));
#970=FACE_OUTER_BOUND('',#960,.T.);
#980=ADVANCED_FACE('',(#970),#830,.F.);
#990=CARTESIAN_POINT('',(-2.5,0.,0.));
#1000=DIRECTION('',(-0.,1.,0.));
#1010=DIRECTION('',(1.,0.,0.));
#1020=AXIS2_PLACEMENT_3D('',#990,#1000,#1010);
#1030=PLANE('',#1020);
#1040=CARTESIAN_POINT('',(0.,0.,0.));
#1050=DIRECTION('',(0.,-1.,0.));
#1060=DIRECTION('',(-1.,0.,0.));
#1070=AXIS2_PLACEMENT_3D('',#1040,#1050,#1060);
#1080=CIRCLE('',#1070,2.5);
#1090=CARTESIAN_POINT('',(2.5,0.,-3.06161699786838E-16));
#1100=VERTEX_POINT('',#1090);
#1110=CARTESIAN_POINT('',(-2.5,-2.22044604925031E-16,0.));
#1120=VERTEX_POINT('',#1110);
#1130=EDGE_CURVE('',#1100,#1120,#1080,.T.);
#1140=ORIENTED_EDGE('',*,*,#1130,.F.);
#1150=EDGE_CURVE('',#1120,#1100,#1080,.T.);
#1160=ORIENTED_EDGE('',*,*,#1150,.F.);
#1170=EDGE_LOOP('',(#1160,#1140));
#1180=FACE_BOUND('',#1170,.T.);
#1190=EDGE_CURVE('',#110,#220,#200,.T.);
#1200=ORIENTED_EDGE('',*,*,#1190,.F.);
#1210=ORIENTED_EDGE('',*,*,#230,.F.);
#1220=EDGE_LOOP('',(#1210,#1200));
#1230=FACE_OUTER_BOUND('',#1220,.T.);
#1240=ADVANCED_FACE('',(#1180,#1230),#1030,.F.);
#1250=CARTESIAN_POINT('',(0.,16.2,0.));
#1260=DIRECTION('',(0.,1.,0.));
#1270=DIRECTION('',(-1.,0.,0.));
#1280=AXIS2_PLACEMENT_3D('',#1250,#1260,#1270);
#1290=TOROIDAL_SURFACE('',#1280,12.3,7.3);
#1300=CARTESIAN_POINT('',(12.3,16.2,0.));
#1310=DIRECTION('',(0.,0.,-1.));
#1320=DIRECTION('',(1.,0.,0.));
#1330=AXIS2_PLACEMENT_3D('',#1300,#1310,#1320);
#1340=CIRCLE('',#1330,7.3);
#1350=CARTESIAN_POINT('',(6.14905885310164,20.1314021681065,0.));
#1360=VERTEX_POINT('',#1350);
#1370=EDGE_CURVE('',#300,#1360,#1340,.T.);
#1380=ORIENTED_EDGE('',*,*,#1370,.F.);
#1390=CARTESIAN_POINT('',(0.,20.1314021681065,0.));
#1400=DIRECTION('',(0.,1.,0.));
#1410=DIRECTION('',(-1.,0.,0.));
#1420=AXIS2_PLACEMENT_3D('',#1390,#1400,#1410);
#1430=CIRCLE('',#1420,6.14905885310164);
#1440=CARTESIAN_POINT('',(-6.14905885310164,20.1314021681065,0.));
#1450=VERTEX_POINT('',#1440);
#1460=EDGE_CURVE('',#1360,#1450,#1430,.T.);
#1470=ORIENTED_EDGE('',*,*,#1460,.F.);
#1480=CARTESIAN_POINT('',(-12.3,16.2,0.));
#1490=DIRECTION('',(0.,0.,1.));
#1500=DIRECTION('',(-1.,0.,0.));
#1510=AXIS2_PLACEMENT_3D('',#1480,#1490,#1500);
#1520=CIRCLE('',#1510,7.3);
#1530=EDGE_CURVE('',#130,#1450,#1520,.T.);
#1540=ORIENTED_EDGE('',*,*,#1530,.T.);
#1550=ORIENTED_EDGE('',*,*,#380,.T.);
#1560=EDGE_LOOP('',(#1550,#1540,#1470,#1380));
#1570=FACE_OUTER_BOUND('',#1560,.T.);
#1580=ADVANCED_FACE('',(#1570),#1290,.F.);
#1590=CARTESIAN_POINT('',(0.,26.,0.));
#1600=DIRECTION('',(0.,1.,0.));
#1610=DIRECTION('',(1.,0.,0.));
#1620=AXIS2_PLACEMENT_3D('',#1590,#1600,#1610);
#1630=CONICAL_SURFACE('',#1620,9.9,0.568713197773791);
#1640=CARTESIAN_POINT('',(9.9,26.,0.));
#1650=DIRECTION('',(0.538548242206373,0.84259467765731,0.));
#1660=VECTOR('',#1650,18.3827542718193);
#1670=LINE('',#1640,#1660);
#1680=CARTESIAN_POINT('',(9.9,26.,0.));
#1690=VERTEX_POINT('',#1680);
#1700=EDGE_CURVE('',#1360,#1690,#1670,.T.);
#1710=ORIENTED_EDGE('',*,*,#1700,.F.);
#1720=CARTESIAN_POINT('',(0.,26.,0.));
#1730=DIRECTION('',(0.,1.,0.));
#1740=DIRECTION('',(-1.,0.,0.));
#1750=AXIS2_PLACEMENT_3D('',#1720,#1730,#1740);
#1760=CIRCLE('',#1750,9.9);
#1770=CARTESIAN_POINT('',(-9.9,26.,-1.21240033115588E-15));
#1780=VERTEX_POINT('',#1770);
#1790=EDGE_CURVE('',#1690,#1780,#1760,.T.);
#1800=ORIENTED_EDGE('',*,*,#1790,.F.);
#1810=CARTESIAN_POINT('',(-9.9,26.,-1.21240033115588E-15));
#1820=DIRECTION('',(-0.538548242206373,0.84259467765731,
-6.59531381004468E-17));
#1830=VECTOR('',#1820,18.3827542718193);
#1840=LINE('',#1810,#1830);
#1850=EDGE_CURVE('',#1450,#1780,#1840,.T.);
#1860=ORIENTED_EDGE('',*,*,#1850,.T.);
#1870=ORIENTED_EDGE('',*,*,#1460,.T.);
#1880=EDGE_LOOP('',(#1870,#1860,#1800,#1710));
#1890=FACE_OUTER_BOUND('',#1880,.T.);
#1900=ADVANCED_FACE('',(#1890),#1630,.T.);
#1910=CARTESIAN_POINT('',(0.,26.2,0.));
#1920=DIRECTION('',(0.,-1.,0.));
#1930=DIRECTION('',(-1.,0.,0.));
#1940=AXIS2_PLACEMENT_3D('',#1910,#1920,#1930);
#1950=CYLINDRICAL_SURFACE('',#1940,9.9);
#1960=CARTESIAN_POINT('',(9.9,26.2,-1.21240033115588E-15));
#1970=DIRECTION('',(0.,-1.,0.));
#1980=VECTOR('',#1970,1.);
#1990=LINE('',#1960,#1980);
#2000=CARTESIAN_POINT('',(9.9,26.4,-1.21240033115588E-15));
#2010=VERTEX_POINT('',#2000);
#2020=EDGE_CURVE('',#2010,#1690,#1990,.T.);
#2030=ORIENTED_EDGE('',*,*,#2020,.T.);
#2040=CARTESIAN_POINT('',(0.,26.4,0.));
#2050=DIRECTION('',(0.,1.,0.));
#2060=DIRECTION('',(-1.,0.,0.));
#2070=AXIS2_PLACEMENT_3D('',#2040,#2050,#2060);
#2080=CIRCLE('',#2070,9.9);
#2090=CARTESIAN_POINT('',(-9.9,26.4,0.));
#2100=VERTEX_POINT('',#2090);
#2110=EDGE_CURVE('',#2010,#2100,#2080,.T.);
#2120=ORIENTED_EDGE('',*,*,#2110,.F.);
#2130=CARTESIAN_POINT('',(-9.9,26.2,0.));
#2140=DIRECTION('',(0.,-1.,0.));
#2150=VECTOR('',#2140,1.);
#2160=LINE('',#2130,#2150);
#2170=EDGE_CURVE('',#2100,#1780,#2160,.T.);
#2180=ORIENTED_EDGE('',*,*,#2170,.F.);
#2190=ORIENTED_EDGE('',*,*,#1790,.T.);
#2200=EDGE_LOOP('',(#2190,#2180,#2120,#2030));
#2210=FACE_OUTER_BOUND('',#2200,.T.);
#2220=ADVANCED_FACE('',(#2210),#1950,.T.);
#2230=CARTESIAN_POINT('',(0.,26.4,0.));
#2240=DIRECTION('',(0.,-1.,0.));
#2250=DIRECTION('',(-1.,0.,0.));
#2260=AXIS2_PLACEMENT_3D('',#2230,#2240,#2250);
#2270=CONICAL_SURFACE('',#2260,9.9,0.907571211037052);
#2280=CARTESIAN_POINT('',(9.9,26.4,-1.21240033115588E-15));
#2290=DIRECTION('',(0.788010753606722,-0.615661475325658,
-9.65034847098166E-17));
#2300=VECTOR('',#2290,12.5632803292185);
#2310=LINE('',#2280,#2300);
#2320=EDGE_CURVE('',#560,#2010,#2310,.T.);
#2330=ORIENTED_EDGE('',*,*,#2320,.T.);
#2340=ORIENTED_EDGE('',*,*,#590,.F.);
#2350=CARTESIAN_POINT('',(-9.9,26.4,0.));
#2360=DIRECTION('',(-0.788010753606722,-0.615661475325658,0.));
#2370=VECTOR('',#2360,12.5632803292185);
#2380=LINE('',#2350,#2370);
#2390=EDGE_CURVE('',#540,#2100,#2380,.T.);
#2400=ORIENTED_EDGE('',*,*,#2390,.F.);
#2410=ORIENTED_EDGE('',*,*,#2110,.T.);
#2420=EDGE_LOOP('',(#2410,#2400,#2340,#2330));
#2430=FACE_OUTER_BOUND('',#2420,.T.);
#2440=ADVANCED_FACE('',(#2430),#2270,.T.);
#2450=CARTESIAN_POINT('',(0.,3.5,0.));
#2460=DIRECTION('',(0.,-1.,0.));
#2470=DIRECTION('',(1.,0.,0.));
#2480=AXIS2_PLACEMENT_3D('',#2450,#2460,#2470);
#2490=CYLINDRICAL_SURFACE('',#2480,1.65);
#2500=CARTESIAN_POINT('',(-1.65,3.5,2.02066721859313E-16));
#2510=DIRECTION('',(0.,-1.,0.));
#2520=VECTOR('',#2510,1.);
#2530=LINE('',#2500,#2520);
#2540=CARTESIAN_POINT('',(-1.65,7.,2.02066721859313E-16));
#2550=VERTEX_POINT('',#2540);
#2560=CARTESIAN_POINT('',(-1.65,0.85,2.02066721859313E-16));
#2570=VERTEX_POINT('',#2560);
#2580=EDGE_CURVE('',#2550,#2570,#2530,.T.);
#2590=ORIENTED_EDGE('',*,*,#2580,.T.);
#2600=CARTESIAN_POINT('',(0.,7.,0.));
#2610=DIRECTION('',(0.,1.,0.));
#2620=DIRECTION('',(1.,0.,0.));
#2630=AXIS2_PLACEMENT_3D('',#2600,#2610,#2620);
#2640=CIRCLE('',#2630,1.65);
#2650=CARTESIAN_POINT('',(1.65,7.,0.));
#2660=VERTEX_POINT('',#2650);
#2670=EDGE_CURVE('',#2660,#2550,#2640,.T.);
#2680=ORIENTED_EDGE('',*,*,#2670,.T.);
#2690=CARTESIAN_POINT('',(1.65,3.5,0.));
#2700=DIRECTION('',(0.,-1.,0.));
#2710=VECTOR('',#2700,1.);
#2720=LINE('',#2690,#2710);
#2730=CARTESIAN_POINT('',(1.65,0.850000000000001,0.));
#2740=VERTEX_POINT('',#2730);
#2750=EDGE_CURVE('',#2660,#2740,#2720,.T.);
#2760=ORIENTED_EDGE('',*,*,#2750,.F.);
#2770=CARTESIAN_POINT('',(0.,0.85,0.));
#2780=DIRECTION('',(0.,-1.,0.));
#2790=DIRECTION('',(-1.,0.,0.));
#2800=AXIS2_PLACEMENT_3D('',#2770,#2780,#2790);
#2810=CIRCLE('',#2800,1.65);
#2820=EDGE_CURVE('',#2570,#2740,#2810,.T.);
#2830=ORIENTED_EDGE('',*,*,#2820,.T.);
#2840=EDGE_LOOP('',(#2830,#2760,#2680,#2590));
#2850=FACE_OUTER_BOUND('',#2840,.T.);
#2860=ADVANCED_FACE('M4_26027',(#2850),#2490,.F.);
#2870=COLOUR_RGB('',1.,0.,0.);
#2880=FILL_AREA_STYLE_COLOUR('',#2870);
#2890=FILL_AREA_STYLE('',(#2880));
#2900=SURFACE_STYLE_FILL_AREA(#2890);
#2910=SURFACE_SIDE_STYLE('',(#2900));
#2920=SURFACE_STYLE_USAGE(.BOTH.,#2910);
#2930=PRESENTATION_STYLE_ASSIGNMENT((#2920));
#2940=CARTESIAN_POINT('',(1.6425,7.,0.));
#2950=DIRECTION('',(0.,-1.,0.));
#2960=DIRECTION('',(1.,0.,0.));
#2970=AXIS2_PLACEMENT_3D('',#2940,#2950,#2960);
#2980=PLANE('',#2970);
#2990=ORIENTED_EDGE('',*,*,#2670,.F.);
#3000=EDGE_CURVE('',#2550,#2660,#2640,.T.);
#3010=ORIENTED_EDGE('',*,*,#3000,.F.);
#3020=EDGE_LOOP('',(#3010,#2990));
#3030=FACE_OUTER_BOUND('',#3020,.T.);
#3040=CARTESIAN_POINT('',(0.,7.,0.));
#3050=DIRECTION('',(0.,1.,0.));
#3060=DIRECTION('',(1.,0.,0.));
#3070=AXIS2_PLACEMENT_3D('',#3040,#3050,#3060);
#3080=CIRCLE('',#3070,1.635);
#3090=CARTESIAN_POINT('',(1.635,7.,0.));
#3100=VERTEX_POINT('',#3090);
#3110=CARTESIAN_POINT('',(-1.635,7.,2.00229751660592E-16));
#3120=VERTEX_POINT('',#3110);
#3130=EDGE_CURVE('',#3100,#3120,#3080,.T.);
#3140=ORIENTED_EDGE('',*,*,#3130,.T.);
#3150=EDGE_CURVE('',#3120,#3100,#3080,.T.);
#3160=ORIENTED_EDGE('',*,*,#3150,.T.);
#3170=EDGE_LOOP('',(#3160,#3140));
#3180=FACE_BOUND('',#3170,.T.);
#3190=ADVANCED_FACE('',(#3030,#3180),#2980,.T.);
#3200=CARTESIAN_POINT('',(0.,8.5,0.));
#3210=DIRECTION('',(0.,-1.,0.));
#3220=DIRECTION('',(1.,0.,0.));
#3230=AXIS2_PLACEMENT_3D('',#3200,#3210,#3220);
#3240=CYLINDRICAL_SURFACE('',#3230,1.635);
#3250=CARTESIAN_POINT('',(1.635,8.5,0.));
#3260=DIRECTION('',(0.,-1.,0.));
#3270=VECTOR('',#3260,1.);
#3280=LINE('',#3250,#3270);
#3290=CARTESIAN_POINT('',(1.635,10.,0.));
#3300=VERTEX_POINT('',#3290);
#3310=EDGE_CURVE('',#3300,#3100,#3280,.T.);
#3320=ORIENTED_EDGE('',*,*,#3310,.T.);
#3330=CARTESIAN_POINT('',(0.,10.,0.));
#3340=DIRECTION('',(0.,1.,0.));
#3350=DIRECTION('',(1.,0.,0.));
#3360=AXIS2_PLACEMENT_3D('',#3330,#3340,#3350);
#3370=CIRCLE('',#3360,1.635);
#3380=CARTESIAN_POINT('',(-1.635,10.,2.00229751660592E-16));
#3390=VERTEX_POINT('',#3380);
#3400=EDGE_CURVE('',#3390,#3300,#3370,.T.);
#3410=ORIENTED_EDGE('',*,*,#3400,.T.);
#3420=CARTESIAN_POINT('',(-1.635,8.5,2.00229751660592E-16));
#3430=DIRECTION('',(0.,-1.,0.));
#3440=VECTOR('',#3430,1.);
#3450=LINE('',#3420,#3440);
#3460=EDGE_CURVE('',#3390,#3120,#3450,.T.);
#3470=ORIENTED_EDGE('',*,*,#3460,.F.);
#3480=ORIENTED_EDGE('',*,*,#3150,.F.);
#3490=EDGE_LOOP('',(#3480,#3470,#3410,#3320));
#3500=FACE_OUTER_BOUND('',#3490,.T.);
#3510=ADVANCED_FACE('',(#3500),#3240,.F.);
#3520=CARTESIAN_POINT('',(0.,10.,0.));
#3530=DIRECTION('',(0.,-1.,0.));
#3540=DIRECTION('',(1.,0.,0.));
#3550=AXIS2_PLACEMENT_3D('',#3520,#3530,#3540);
#3560=CONICAL_SURFACE('',#3550,1.635,1.02974425867666);
#3570=CARTESIAN_POINT('',(1.635,10.,0.));
#3580=DIRECTION('',(0.857167300702113,-0.515038074910054,0.));
#3590=VECTOR('',#3580,1.90744560444706);
#3600=LINE('',#3570,#3590);
#3610=CARTESIAN_POINT('',(-2.22044604925031E-16,10.9824071121101,
2.46519032881566E-32));
#3620=VERTEX_POINT('',#3610);
#3630=EDGE_CURVE('',#3620,#3300,#3600,.T.);
#3640=ORIENTED_EDGE('',*,*,#3630,.T.);
#3650=CARTESIAN_POINT('',(-1.635,10.,2.00229751660592E-16));
#3660=DIRECTION('',(-0.857167300702113,-0.515038074910054,
1.04972719113862E-16));
#3670=VECTOR('',#3660,1.90744560444706);
#3680=LINE('',#3650,#3670);
#3690=EDGE_CURVE('',#3620,#3390,#3680,.T.);
#3700=ORIENTED_EDGE('',*,*,#3690,.F.);
#3710=ORIENTED_EDGE('',*,*,#3400,.F.);
#3720=EDGE_LOOP('',(#3710,#3700,#3640));
#3730=FACE_OUTER_BOUND('',#3720,.T.);
#3740=ADVANCED_FACE('',(#3730),#3560,.F.);
#3750=CARTESIAN_POINT('',(0.,0.85,0.));
#3760=DIRECTION('',(0.,-1.,0.));
#3770=DIRECTION('',(-1.,0.,0.));
#3780=AXIS2_PLACEMENT_3D('',#3750,#3760,#3770);
#3790=CONICAL_SURFACE('',#3780,1.65,0.785398163397448);
#3800=CARTESIAN_POINT('',(1.65,0.85,-2.02066721859313E-16));
#3810=DIRECTION('',(0.707106781186548,-0.707106781186548,
-8.65956056235493E-17));
#3820=VECTOR('',#3810,2.33345237791561);
#3830=LINE('',#3800,#3820);
#3840=EDGE_CURVE('',#2740,#1100,#3830,.T.);
#3850=ORIENTED_EDGE('',*,*,#3840,.F.);
#3860=ORIENTED_EDGE('',*,*,#1150,.T.);
#3870=CARTESIAN_POINT('',(-1.65,0.85,0.));
#3880=DIRECTION('',(-0.707106781186548,-0.707106781186548,0.));
#3890=VECTOR('',#3880,2.33345237791561);
#3900=LINE('',#3870,#3890);
#3910=EDGE_CURVE('',#2570,#1120,#3900,.T.);
#3920=ORIENTED_EDGE('',*,*,#3910,.T.);
#3930=ORIENTED_EDGE('',*,*,#2820,.F.);
#3940=EDGE_LOOP('',(#3930,#3920,#3860,#3850));
#3950=FACE_OUTER_BOUND('',#3940,.T.);
#3960=ADVANCED_FACE('',(#3950),#3790,.F.);
#3970=CARTESIAN_POINT('',(0.,0.85,0.));
#3980=DIRECTION('',(0.,-1.,0.));
#3990=DIRECTION('',(-1.,0.,0.));
#4000=AXIS2_PLACEMENT_3D('',#3970,#3980,#3990);
#4010=CONICAL_SURFACE('',#4000,1.65,0.785398163397448);
#4020=ORIENTED_EDGE('',*,*,#1130,.T.);
#4030=ORIENTED_EDGE('',*,*,#3840,.T.);
#4040=EDGE_CURVE('',#2740,#2570,#2810,.T.);
#4050=ORIENTED_EDGE('',*,*,#4040,.F.);
#4060=ORIENTED_EDGE('',*,*,#3910,.F.);
#4070=EDGE_LOOP('',(#4060,#4050,#4030,#4020));
#4080=FACE_OUTER_BOUND('',#4070,.T.);
#4090=ADVANCED_FACE('',(#4080),#4010,.F.);
#4100=CARTESIAN_POINT('',(0.,10.,0.));
#4110=DIRECTION('',(0.,-1.,0.));
#4120=DIRECTION('',(1.,0.,0.));
#4130=AXIS2_PLACEMENT_3D('',#4100,#4110,#4120);
#4140=CONICAL_SURFACE('',#4130,1.635,1.02974425867666);
#4150=ORIENTED_EDGE('',*,*,#3630,.F.);
#4160=EDGE_CURVE('',#3300,#3390,#3370,.T.);
#4170=ORIENTED_EDGE('',*,*,#4160,.F.);
#4180=ORIENTED_EDGE('',*,*,#3690,.T.);
#4190=EDGE_LOOP('',(#4180,#4170,#4150));
#4200=FACE_OUTER_BOUND('',#4190,.T.);
#4210=ADVANCED_FACE('',(#4200),#4140,.F.);
#4220=CARTESIAN_POINT('',(0.,26.4,0.));
#4230=DIRECTION('',(0.,-1.,0.));
#4240=DIRECTION('',(-1.,0.,0.));
#4250=AXIS2_PLACEMENT_3D('',#4220,#4230,#4240);
#4260=CONICAL_SURFACE('',#4250,9.9,0.907571211037052);
#4270=ORIENTED_EDGE('',*,*,#570,.F.);
#4280=ORIENTED_EDGE('',*,*,#2320,.F.);
#4290=EDGE_CURVE('',#2100,#2010,#2080,.T.);
#4300=ORIENTED_EDGE('',*,*,#4290,.T.);
#4310=ORIENTED_EDGE('',*,*,#2390,.T.);
#4320=EDGE_LOOP('',(#4310,#4300,#4280,#4270));
#4330=FACE_OUTER_BOUND('',#4320,.T.);
#4340=ADVANCED_FACE('',(#4330),#4260,.T.);
#4350=CARTESIAN_POINT('',(0.,26.2,0.));
#4360=DIRECTION('',(0.,-1.,0.));
#4370=DIRECTION('',(-1.,0.,0.));
#4380=AXIS2_PLACEMENT_3D('',#4350,#4360,#4370);
#4390=CYLINDRICAL_SURFACE('',#4380,9.9);
#4400=ORIENTED_EDGE('',*,*,#4290,.F.);
#4410=ORIENTED_EDGE('',*,*,#2020,.F.);
#4420=EDGE_CURVE('',#1780,#1690,#1760,.T.);
#4430=ORIENTED_EDGE('',*,*,#4420,.T.);
#4440=ORIENTED_EDGE('',*,*,#2170,.T.);
#4450=EDGE_LOOP('',(#4440,#4430,#4410,#4400));
#4460=FACE_OUTER_BOUND('',#4450,.T.);
#4470=ADVANCED_FACE('',(#4460),#4390,.T.);
#4480=CARTESIAN_POINT('',(0.,26.,0.));
#4490=DIRECTION('',(0.,1.,0.));
#4500=DIRECTION('',(1.,0.,0.));
#4510=AXIS2_PLACEMENT_3D('',#4480,#4490,#4500);
#4520=CONICAL_SURFACE('',#4510,9.9,0.568713197773791);
#4530=EDGE_CURVE('',#1450,#1360,#1430,.T.);
#4540=ORIENTED_EDGE('',*,*,#4530,.T.);
#4550=ORIENTED_EDGE('',*,*,#1850,.F.);
#4560=ORIENTED_EDGE('',*,*,#4420,.F.);
#4570=ORIENTED_EDGE('',*,*,#1700,.T.);
#4580=EDGE_LOOP('',(#4570,#4560,#4550,#4540));
#4590=FACE_OUTER_BOUND('',#4580,.T.);
#4600=ADVANCED_FACE('',(#4590),#4520,.T.);
#4610=CARTESIAN_POINT('',(0.,7.34417804807032,0.));
#4620=DIRECTION('',(0.,1.,0.));
#4630=DIRECTION('',(1.,0.,0.));
#4640=AXIS2_PLACEMENT_3D('',#4610,#4620,#4630);
#4650=CYLINDRICAL_SURFACE('',#4640,5.);
#4660=ORIENTED_EDGE('',*,*,#1190,.T.);
#4670=ORIENTED_EDGE('',*,*,#140,.F.);
#4680=EDGE_CURVE('',#130,#300,#370,.T.);
#4690=ORIENTED_EDGE('',*,*,#4680,.F.);
#4700=ORIENTED_EDGE('',*,*,#310,.T.);
#4710=EDGE_LOOP('',(#4700,#4690,#4670,#4660));
#4720=FACE_OUTER_BOUND('',#4710,.T.);
#4730=ADVANCED_FACE('',(#4720),#4650,.T.);
#4740=CARTESIAN_POINT('',(0.,8.5,0.));
#4750=DIRECTION('',(0.,-1.,0.));
#4760=DIRECTION('',(1.,0.,0.));
#4770=AXIS2_PLACEMENT_3D('',#4740,#4750,#4760);
#4780=CYLINDRICAL_SURFACE('',#4770,1.635);
#4790=ORIENTED_EDGE('',*,*,#3130,.F.);
#4800=ORIENTED_EDGE('',*,*,#3460,.T.);
#4810=ORIENTED_EDGE('',*,*,#4160,.T.);
#4820=ORIENTED_EDGE('',*,*,#3310,.F.);
#4830=EDGE_LOOP('',(#4820,#4810,#4800,#4790));
#4840=FACE_OUTER_BOUND('',#4830,.T.);
#4850=ADVANCED_FACE('',(#4840),#4780,.F.);
#4860=CARTESIAN_POINT('',(0.,3.5,0.));
#4870=DIRECTION('',(0.,-1.,0.));
#4880=DIRECTION('',(1.,0.,0.));
#4890=AXIS2_PLACEMENT_3D('',#4860,#4870,#4880);
#4900=CYLINDRICAL_SURFACE('',#4890,1.65);
#4910=ORIENTED_EDGE('',*,*,#2580,.F.);
#4920=ORIENTED_EDGE('',*,*,#4040,.T.);
#4930=ORIENTED_EDGE('',*,*,#2750,.T.);
#4940=ORIENTED_EDGE('',*,*,#3000,.T.);
#4950=EDGE_LOOP('',(#4940,#4930,#4920,#4910));
#4960=FACE_OUTER_BOUND('',#4950,.T.);
#4970=ADVANCED_FACE('',(#4960),#4900,.F.);
#4980=COLOUR_RGB('',1.,0.,0.);
#4990=FILL_AREA_STYLE_COLOUR('',#4980);
#5000=FILL_AREA_STYLE('',(#4990));
#5010=SURFACE_STYLE_FILL_AREA(#5000);
#5020=SURFACE_SIDE_STYLE('',(#5010));
#5030=SURFACE_STYLE_USAGE(.BOTH.,#5020);
#5040=PRESENTATION_STYLE_ASSIGNMENT((#5030));
#5050=CARTESIAN_POINT('',(0.,16.2,0.));
#5060=DIRECTION('',(0.,1.,0.));
#5070=DIRECTION('',(-1.,0.,0.));
#5080=AXIS2_PLACEMENT_3D('',#5050,#5060,#5070);
#5090=TOROIDAL_SURFACE('',#5080,12.3,7.3);
#5100=ORIENTED_EDGE('',*,*,#4530,.F.);
#5110=ORIENTED_EDGE('',*,*,#1370,.T.);
#5120=ORIENTED_EDGE('',*,*,#4680,.T.);
#5130=ORIENTED_EDGE('',*,*,#1530,.F.);
#5140=EDGE_LOOP('',(#5130,#5120,#5110,#5100));
#5150=FACE_OUTER_BOUND('',#5140,.T.);
#5160=ADVANCED_FACE('',(#5150),#5090,.F.);
#5170=CARTESIAN_POINT('',(0.,38.2083333333333,0.));
#5180=DIRECTION('',(0.,1.,0.));
#5190=DIRECTION('',(1.,0.,0.));
#5200=AXIS2_PLACEMENT_3D('',#5170,#5180,#5190);
#5210=SPHERICAL_SURFACE('',#5200,12.6083333333333);
#5220=ORIENTED_EDGE('',*,*,#720,.T.);
#5230=ORIENTED_EDGE('',*,*,#930,.T.);
#5240=ORIENTED_EDGE('',*,*,#910,.T.);
#5250=EDGE_LOOP('',(#5240,#5230,#5220));
#5260=FACE_OUTER_BOUND('',#5250,.T.);
#5270=ADVANCED_FACE('',(#5260),#5210,.F.);
#5280=CLOSED_SHELL('',(#420,#780,#980,#1240,#1580,#1900,#2220,#2440,
#2860,#3190,#3510,#3740,#3960,#4090,#4210,#4340,#4470,#4600,#4730,#4850,
#4970,#5160,#5270));
#5290=MANIFOLD_SOLID_BREP('',#5280);
#5300=CARTESIAN_POINT('',(0.,0.,0.));
#5310=DIRECTION('',(0.,0.,1.));
#5320=DIRECTION('',(1.,0.,0.));
#5330=AXIS2_PLACEMENT_3D('',#5300,#5310,#5320);
#5340=APPLICATION_CONTEXT(' ');
#5350=APPLICATION_PROTOCOL_DEFINITION(' ','automotive_design',1998,#5340
);
#5360=PRODUCT_CONTEXT('',#5340,'mechanical');
#5370=PRODUCT_DEFINITION_CONTEXT('part definition',#5340,'design');
#5380=PRODUCT('NI-10317','NI-10317','',(#5360));
#5390=PRODUCT_RELATED_PRODUCT_CATEGORY('part',' ',(#5380));
#5400=PRODUCT_DEFINITION_FORMATION_WITH_SPECIFIED_SOURCE('','',#5380,
.BOUGHT.);
#5410=PRODUCT_DEFINITION('',' ',#5400,#5370);
#5420=PRODUCT_DEFINITION_SHAPE('','',#5410);
#5430=DIMENSIONAL_EXPONENTS(1.,0.,0.,0.,0.,0.,0.);
#5440=DIMENSIONAL_EXPONENTS(0.,0.,0.,0.,0.,0.,0.);
#5450=DIMENSIONAL_EXPONENTS(0.,0.,0.,0.,0.,0.,0.);
#5460=(LENGTH_UNIT() NAMED_UNIT(*) SI_UNIT(.MILLI.,.METRE.));
#5470=(NAMED_UNIT(*) PLANE_ANGLE_UNIT() SI_UNIT($,.RADIAN.));
#5480=(NAMED_UNIT(*) SI_UNIT($,.STERADIAN.) SOLID_ANGLE_UNIT());
#5490=(GEOMETRIC_REPRESENTATION_CONTEXT(3) 
GLOBAL_UNCERTAINTY_ASSIGNED_CONTEXT((#5500)) 
GLOBAL_UNIT_ASSIGNED_CONTEXT((#5460,#5470,#5480)) REPRESENTATION_CONTEXT
('',''));
#5500=UNCERTAINTY_MEASURE_WITH_UNIT(LENGTH_MEASURE(1.E-6),#5460,
'distance_accuracy_value','maximum gap value');
#5510=ADVANCED_BREP_SHAPE_REPRESENTATION('',(#5330,#5290),#5490);
#5520=SHAPE_DEFINITION_REPRESENTATION(#5420,#5510);
#5530=COLOUR_RGB('',0.600000023841858,0.600000023841858,
0.600000023841858);
#5540=FILL_AREA_STYLE_COLOUR('',#5530);
#5550=FILL_AREA_STYLE('',(#5540));
#5560=SURFACE_STYLE_FILL_AREA(#5550);
#5570=SURFACE_SIDE_STYLE('',(#5560));
#5580=SURFACE_STYLE_USAGE(.BOTH.,#5570);
#5590=PRESENTATION_STYLE_ASSIGNMENT((#5580));
#5600=STYLED_ITEM('',(#5590),#5290);
#5610=OVER_RIDING_STYLED_ITEM('',(#2930),#2860,#5600);
#5620=OVER_RIDING_STYLED_ITEM('',(#5040),#4970,#5600);
#5630=DRAUGHTING_MODEL('',(#5600,#5610,#5620),#5490);
ENDSEC;
END-ISO-10303-21;
