ISO-10303-21;
HEADER;
FILE_DESCRIPTION(('Creo Elements/Direct Modeling STEP Export'),'2;1');
FILE_NAME('2418.stp','2022-01-26T10:57:34',(''),(''),
'Creo Elements/Direct Modeling STEP processor for AP214 (Solid Model)',
'Creo Elements/Direct Modeling 20.0  12-Nov-2016 (C) Parametric Technolo
gy GmbH','');
FILE_SCHEMA(('AUTOMOTIVE_DESIGN { 1 0 10303 214 1 1 1 1 }'));
ENDSEC;
DATA;
#10=CARTESIAN_POINT('',(-2.65000000000001,45.,0.));
#20=DIRECTION('',(-0.,-1.,-0.));
#30=DIRECTION('',(-1.,0.,0.));
#40=AXIS2_PLACEMENT_3D('',#10,#20,#30);
#50=PLANE('',#40);
#60=CARTESIAN_POINT('',(4.90000000000001,45.,0.));
#70=DIRECTION('',(0.,1.,0.));
#80=DIRECTION('',(-1.,0.,0.));
#90=AXIS2_PLACEMENT_3D('',#60,#70,#80);
#100=CIRCLE('',#90,7.7);
#110=CARTESIAN_POINT('',(-2.8,45.,0.));
#120=VERTEX_POINT('',#110);
#130=CARTESIAN_POINT('',(12.6,45.,-9.42978035343462E-16));
#140=VERTEX_POINT('',#130);
#150=EDGE_CURVE('',#120,#140,#100,.T.);
#160=ORIENTED_EDGE('',*,*,#150,.T.);
#170=EDGE_CURVE('',#140,#120,#100,.T.);
#180=ORIENTED_EDGE('',*,*,#170,.T.);
#190=EDGE_LOOP('',(#180,#160));
#200=FACE_OUTER_BOUND('',#190,.T.);
#210=CARTESIAN_POINT('',(4.90000000000001,45.,0.));
#220=DIRECTION('',(0.,1.,0.));
#230=DIRECTION('',(-1.,0.,0.));
#240=AXIS2_PLACEMENT_3D('',#210,#220,#230);
#250=CIRCLE('',#240,7.40000000000001);
#260=CARTESIAN_POINT('',(-2.5,45.,0.));
#270=VERTEX_POINT('',#260);
#280=CARTESIAN_POINT('',(12.3,45.,0.));
#290=VERTEX_POINT('',#280);
#300=EDGE_CURVE('',#270,#290,#250,.T.);
#310=ORIENTED_EDGE('',*,*,#300,.F.);
#320=EDGE_CURVE('',#290,#270,#250,.T.);
#330=ORIENTED_EDGE('',*,*,#320,.F.);
#340=EDGE_LOOP('',(#330,#310));
#350=FACE_BOUND('',#340,.T.);
#360=ADVANCED_FACE('',(#200,#350),#50,.F.);
#370=CARTESIAN_POINT('',(4.9,16.9894882233485,0.));
#380=DIRECTION('',(0.,1.,0.));
#390=DIRECTION('',(1.,0.,0.));
#400=AXIS2_PLACEMENT_3D('',#370,#380,#390);
#410=CYLINDRICAL_SURFACE('',#400,5.);
#420=CARTESIAN_POINT('',(-0.0999999999999996,16.9894882233485,
-6.12323399573677E-16));
#430=DIRECTION('',(0.,1.,0.));
#440=VECTOR('',#430,1.);
#450=LINE('',#420,#440);
#460=CARTESIAN_POINT('',(-0.0999999999999996,0.,-6.12323399573677E-16));
#470=VERTEX_POINT('',#460);
#480=CARTESIAN_POINT('',(-0.0999999999999943,33.1,0.));
#490=VERTEX_POINT('',#480);
#500=EDGE_CURVE('',#470,#490,#450,.T.);
#510=ORIENTED_EDGE('',*,*,#500,.T.);
#520=CARTESIAN_POINT('',(4.90000000000001,0.,0.));
#530=DIRECTION('',(0.,1.,0.));
#540=DIRECTION('',(-1.,0.,0.));
#550=AXIS2_PLACEMENT_3D('',#520,#530,#540);
#560=CIRCLE('',#550,5.);
#570=CARTESIAN_POINT('',(9.9,0.,0.));
#580=VERTEX_POINT('',#570);
#590=EDGE_CURVE('',#580,#470,#560,.T.);
#600=ORIENTED_EDGE('',*,*,#590,.T.);
#610=CARTESIAN_POINT('',(9.9,16.9894882233485,0.));
#620=DIRECTION('',(0.,1.,0.));
#630=VECTOR('',#620,1.);
#640=LINE('',#610,#630);
#650=CARTESIAN_POINT('',(9.90000000000001,33.1,0.));
#660=VERTEX_POINT('',#650);
#670=EDGE_CURVE('',#580,#660,#640,.T.);
#680=ORIENTED_EDGE('',*,*,#670,.F.);
#690=CARTESIAN_POINT('',(4.90000000000001,33.1,0.));
#700=DIRECTION('',(0.,1.,0.));
#710=DIRECTION('',(-1.,0.,0.));
#720=AXIS2_PLACEMENT_3D('',#690,#700,#710);
#730=CIRCLE('',#720,5.);
#740=EDGE_CURVE('',#660,#490,#730,.T.);
#750=ORIENTED_EDGE('',*,*,#740,.F.);
#760=EDGE_LOOP('',(#750,#680,#600,#510));
#770=FACE_OUTER_BOUND('',#760,.T.);
#780=ADVANCED_FACE('',(#770),#410,.T.);
#790=CARTESIAN_POINT('',(4.90000000000001,55.754347826087,0.));
#800=DIRECTION('',(0.,1.,0.));
#810=DIRECTION('',(1.,0.,0.));
#820=AXIS2_PLACEMENT_3D('',#790,#800,#810);
#830=SPHERICAL_SURFACE('',#820,13.054347826087);
#840=CARTESIAN_POINT('',(4.90000000000001,55.754347826087,0.));
#850=DIRECTION('',(0.,0.,-1.));
#860=DIRECTION('',(1.,-0.,0.));
#870=AXIS2_PLACEMENT_3D('',#840,#850,#860);
#880=CIRCLE('',#870,13.054347826087);
#890=CARTESIAN_POINT('',(4.90000000000001,42.7,0.));
#900=VERTEX_POINT('',#890);
#910=EDGE_CURVE('',#290,#900,#880,.T.);
#920=ORIENTED_EDGE('',*,*,#910,.F.);
#930=EDGE_CURVE('',#900,#270,#880,.T.);
#940=ORIENTED_EDGE('',*,*,#930,.F.);
#950=ORIENTED_EDGE('',*,*,#320,.T.);
#960=EDGE_LOOP('',(#950,#940,#920));
#970=FACE_OUTER_BOUND('',#960,.T.);
#980=ADVANCED_FACE('',(#970),#830,.F.);
#990=CARTESIAN_POINT('',(2.40000000000001,0.,0.));
#1000=DIRECTION('',(-0.,1.,0.));
#1010=DIRECTION('',(1.,0.,0.));
#1020=AXIS2_PLACEMENT_3D('',#990,#1000,#1010);
#1030=PLANE('',#1020);
#1040=CARTESIAN_POINT('',(4.90000000000001,0.,0.));
#1050=DIRECTION('',(0.,-1.,0.));
#1060=DIRECTION('',(-1.,0.,0.));
#1070=AXIS2_PLACEMENT_3D('',#1040,#1050,#1060);
#1080=CIRCLE('',#1070,2.5);
#1090=CARTESIAN_POINT('',(7.40000000000001,2.22044604925031E-16,
-3.06161699786838E-16));
#1100=VERTEX_POINT('',#1090);
#1110=CARTESIAN_POINT('',(2.40000000000001,-2.22044604925031E-16,0.));
#1120=VERTEX_POINT('',#1110);
#1130=EDGE_CURVE('',#1100,#1120,#1080,.T.);
#1140=ORIENTED_EDGE('',*,*,#1130,.F.);
#1150=EDGE_CURVE('',#1120,#1100,#1080,.T.);
#1160=ORIENTED_EDGE('',*,*,#1150,.F.);
#1170=EDGE_LOOP('',(#1160,#1140));
#1180=FACE_BOUND('',#1170,.T.);
#1190=EDGE_CURVE('',#470,#580,#560,.T.);
#1200=ORIENTED_EDGE('',*,*,#1190,.F.);
#1210=ORIENTED_EDGE('',*,*,#590,.F.);
#1220=EDGE_LOOP('',(#1210,#1200));
#1230=FACE_OUTER_BOUND('',#1220,.T.);
#1240=ADVANCED_FACE('',(#1180,#1230),#1030,.F.);
#1250=CARTESIAN_POINT('',(4.90000000000001,33.1,0.));
#1260=DIRECTION('',(0.,1.,0.));
#1270=DIRECTION('',(-1.,0.,0.));
#1280=AXIS2_PLACEMENT_3D('',#1250,#1260,#1270);
#1290=TOROIDAL_SURFACE('',#1280,12.,7.);
#1300=CARTESIAN_POINT('',(16.9,33.1,0.));
#1310=DIRECTION('',(0.,0.,-1.));
#1320=DIRECTION('',(1.,0.,0.));
#1330=AXIS2_PLACEMENT_3D('',#1300,#1310,#1320);
#1340=CIRCLE('',#1330,7.);
#1350=CARTESIAN_POINT('',(11.0053924351471,36.875394238537,0.));
#1360=VERTEX_POINT('',#1350);
#1370=EDGE_CURVE('',#660,#1360,#1340,.T.);
#1380=ORIENTED_EDGE('',*,*,#1370,.F.);
#1390=CARTESIAN_POINT('',(4.90000000000001,36.875394238537,0.));
#1400=DIRECTION('',(0.,1.,0.));
#1410=DIRECTION('',(-1.,0.,0.));
#1420=AXIS2_PLACEMENT_3D('',#1390,#1400,#1410);
#1430=CIRCLE('',#1420,6.10539243514705);
#1440=CARTESIAN_POINT('',(-1.20539243514705,36.875394238537,0.));
#1450=VERTEX_POINT('',#1440);
#1460=EDGE_CURVE('',#1360,#1450,#1430,.T.);
#1470=ORIENTED_EDGE('',*,*,#1460,.F.);
#1480=CARTESIAN_POINT('',(-7.09999999999999,33.1,0.));
#1490=DIRECTION('',(0.,0.,1.));
#1500=DIRECTION('',(-1.,0.,0.));
#1510=AXIS2_PLACEMENT_3D('',#1480,#1490,#1500);
#1520=CIRCLE('',#1510,7.);
#1530=EDGE_CURVE('',#490,#1450,#1520,.T.);
#1540=ORIENTED_EDGE('',*,*,#1530,.T.);
#1550=ORIENTED_EDGE('',*,*,#740,.T.);
#1560=EDGE_LOOP('',(#1550,#1540,#1470,#1380));
#1570=FACE_OUTER_BOUND('',#1560,.T.);
#1580=ADVANCED_FACE('',(#1570),#1290,.F.);
#1590=CARTESIAN_POINT('',(4.90000000000001,42.8,0.));
#1600=DIRECTION('',(0.,1.,0.));
#1610=DIRECTION('',(1.,0.,0.));
#1620=AXIS2_PLACEMENT_3D('',#1590,#1600,#1610);
#1630=CONICAL_SURFACE('',#1620,9.90000000000001,0.569655562042041);
#1640=CARTESIAN_POINT('',(14.8,42.8,0.));
#1650=DIRECTION('',(0.539342034076714,0.842086794978993,0.));
#1660=VECTOR('',#1650,18.355698934068);
#1670=LINE('',#1640,#1660);
#1680=CARTESIAN_POINT('',(14.8,42.8,0.));
#1690=VERTEX_POINT('',#1680);
#1700=EDGE_CURVE('',#1360,#1690,#1670,.T.);
#1710=ORIENTED_EDGE('',*,*,#1700,.F.);
#1720=CARTESIAN_POINT('',(4.90000000000001,42.8,0.));
#1730=DIRECTION('',(0.,1.,0.));
#1740=DIRECTION('',(-1.,0.,0.));
#1750=AXIS2_PLACEMENT_3D('',#1720,#1730,#1740);
#1760=CIRCLE('',#1750,9.90000000000001);
#1770=CARTESIAN_POINT('',(-5.,42.8,-1.21240033115588E-15));
#1780=VERTEX_POINT('',#1770);
#1790=EDGE_CURVE('',#1690,#1780,#1760,.T.);
#1800=ORIENTED_EDGE('',*,*,#1790,.F.);
#1810=CARTESIAN_POINT('',(-5.,42.8,-1.21240033115588E-15));
#1820=DIRECTION('',(-0.539342034076714,0.842086794978993,
-6.60503495677671E-17));
#1830=VECTOR('',#1820,18.355698934068);
#1840=LINE('',#1810,#1830);
#1850=EDGE_CURVE('',#1450,#1780,#1840,.T.);
#1860=ORIENTED_EDGE('',*,*,#1850,.T.);
#1870=ORIENTED_EDGE('',*,*,#1460,.T.);
#1880=EDGE_LOOP('',(#1870,#1860,#1800,#1710));
#1890=FACE_OUTER_BOUND('',#1880,.T.);
#1900=ADVANCED_FACE('',(#1890),#1630,.T.);
#1910=CARTESIAN_POINT('',(4.90000000000001,43.,0.));
#1920=DIRECTION('',(0.,-1.,0.));
#1930=DIRECTION('',(-1.,0.,0.));
#1940=AXIS2_PLACEMENT_3D('',#1910,#1920,#1930);
#1950=CYLINDRICAL_SURFACE('',#1940,9.90000000000001);
#1960=CARTESIAN_POINT('',(14.8,43.,-1.21240033115588E-15));
#1970=DIRECTION('',(0.,-1.,0.));
#1980=VECTOR('',#1970,1.);
#1990=LINE('',#1960,#1980);
#2000=CARTESIAN_POINT('',(14.8,43.2,-1.21240033115588E-15));
#2010=VERTEX_POINT('',#2000);
#2020=EDGE_CURVE('',#2010,#1690,#1990,.T.);
#2030=ORIENTED_EDGE('',*,*,#2020,.T.);
#2040=CARTESIAN_POINT('',(4.90000000000001,43.2,0.));
#2050=DIRECTION('',(0.,1.,0.));
#2060=DIRECTION('',(-1.,0.,0.));
#2070=AXIS2_PLACEMENT_3D('',#2040,#2050,#2060);
#2080=CIRCLE('',#2070,9.90000000000001);
#2090=CARTESIAN_POINT('',(-5.,43.2,0.));
#2100=VERTEX_POINT('',#2090);
#2110=EDGE_CURVE('',#2010,#2100,#2080,.T.);
#2120=ORIENTED_EDGE('',*,*,#2110,.F.);
#2130=CARTESIAN_POINT('',(-5.,43.,0.));
#2140=DIRECTION('',(0.,-1.,0.));
#2150=VECTOR('',#2140,1.);
#2160=LINE('',#2130,#2150);
#2170=EDGE_CURVE('',#2100,#1780,#2160,.T.);
#2180=ORIENTED_EDGE('',*,*,#2170,.F.);
#2190=ORIENTED_EDGE('',*,*,#1790,.T.);
#2200=EDGE_LOOP('',(#2190,#2180,#2120,#2030));
#2210=FACE_OUTER_BOUND('',#2200,.T.);
#2220=ADVANCED_FACE('',(#2210),#1950,.T.);
#2230=CARTESIAN_POINT('',(4.90000000000001,43.2,0.));
#2240=DIRECTION('',(0.,-1.,0.));
#2250=DIRECTION('',(-1.,0.,0.));
#2260=AXIS2_PLACEMENT_3D('',#2230,#2240,#2250);
#2270=CONICAL_SURFACE('',#2260,9.90000000000001,0.88506681588861);
#2280=CARTESIAN_POINT('',(14.8,43.2,-1.21240033115588E-15));
#2290=DIRECTION('',(0.773957299203321,-0.633237790257263,
-9.47824329146077E-17));
#2300=VECTOR('',#2290,12.7914033631967);
#2310=LINE('',#2280,#2300);
#2320=EDGE_CURVE('',#140,#2010,#2310,.T.);
#2330=ORIENTED_EDGE('',*,*,#2320,.T.);
#2340=ORIENTED_EDGE('',*,*,#170,.F.);
#2350=CARTESIAN_POINT('',(-5.,43.2,0.));
#2360=DIRECTION('',(-0.773957299203321,-0.633237790257263,0.));
#2370=VECTOR('',#2360,12.7914033631967);
#2380=LINE('',#2350,#2370);
#2390=EDGE_CURVE('',#120,#2100,#2380,.T.);
#2400=ORIENTED_EDGE('',*,*,#2390,.F.);
#2410=ORIENTED_EDGE('',*,*,#2110,.T.);
#2420=EDGE_LOOP('',(#2410,#2400,#2340,#2330));
#2430=FACE_OUTER_BOUND('',#2420,.T.);
#2440=ADVANCED_FACE('',(#2430),#2270,.T.);
#2450=CARTESIAN_POINT('',(4.90000000000001,3.5,0.));
#2460=DIRECTION('',(0.,-1.,0.));
#2470=DIRECTION('',(1.,0.,0.));
#2480=AXIS2_PLACEMENT_3D('',#2450,#2460,#2470);
#2490=CYLINDRICAL_SURFACE('',#2480,1.65);
#2500=CARTESIAN_POINT('',(3.25000000000001,3.5,2.02066721859313E-16));
#2510=DIRECTION('',(0.,-1.,0.));
#2520=VECTOR('',#2510,1.);
#2530=LINE('',#2500,#2520);
#2540=CARTESIAN_POINT('',(3.25000000000001,10.,2.02066721859313E-16));
#2550=VERTEX_POINT('',#2540);
#2560=CARTESIAN_POINT('',(3.25000000000001,0.85,2.02066721859313E-16));
#2570=VERTEX_POINT('',#2560);
#2580=EDGE_CURVE('',#2550,#2570,#2530,.T.);
#2590=ORIENTED_EDGE('',*,*,#2580,.T.);
#2600=CARTESIAN_POINT('',(4.90000000000001,10.,0.));
#2610=DIRECTION('',(0.,1.,0.));
#2620=DIRECTION('',(1.,0.,0.));
#2630=AXIS2_PLACEMENT_3D('',#2600,#2610,#2620);
#2640=CIRCLE('',#2630,1.65);
#2650=CARTESIAN_POINT('',(6.55000000000001,10.,0.));
#2660=VERTEX_POINT('',#2650);
#2670=EDGE_CURVE('',#2660,#2550,#2640,.T.);
#2680=ORIENTED_EDGE('',*,*,#2670,.T.);
#2690=CARTESIAN_POINT('',(6.55000000000001,3.5,0.));
#2700=DIRECTION('',(0.,-1.,0.));
#2710=VECTOR('',#2700,1.);
#2720=LINE('',#2690,#2710);
#2730=CARTESIAN_POINT('',(6.55000000000001,0.85,0.));
#2740=VERTEX_POINT('',#2730);
#2750=EDGE_CURVE('',#2660,#2740,#2720,.T.);
#2760=ORIENTED_EDGE('',*,*,#2750,.F.);
#2770=CARTESIAN_POINT('',(4.90000000000001,0.85,0.));
#2780=DIRECTION('',(0.,-1.,0.));
#2790=DIRECTION('',(-1.,0.,0.));
#2800=AXIS2_PLACEMENT_3D('',#2770,#2780,#2790);
#2810=CIRCLE('',#2800,1.65);
#2820=EDGE_CURVE('',#2570,#2740,#2810,.T.);
#2830=ORIENTED_EDGE('',*,*,#2820,.T.);
#2840=EDGE_LOOP('',(#2830,#2760,#2680,#2590));
#2850=FACE_OUTER_BOUND('',#2840,.T.);
#2860=ADVANCED_FACE('M4_27361',(#2850),#2490,.F.);
#2870=COLOUR_RGB('',1.,0.,0.);
#2880=FILL_AREA_STYLE_COLOUR('',#2870);
#2890=FILL_AREA_STYLE('',(#2880));
#2900=SURFACE_STYLE_FILL_AREA(#2890);
#2910=SURFACE_SIDE_STYLE('',(#2900));
#2920=SURFACE_STYLE_USAGE(.BOTH.,#2910);
#2930=PRESENTATION_STYLE_ASSIGNMENT((#2920));
#2940=CARTESIAN_POINT('',(6.54250000000001,10.,0.));
#2950=DIRECTION('',(0.,-1.,0.));
#2960=DIRECTION('',(1.,0.,0.));
#2970=AXIS2_PLACEMENT_3D('',#2940,#2950,#2960);
#2980=PLANE('',#2970);
#2990=CARTESIAN_POINT('',(4.90000000000001,10.,0.));
#3000=DIRECTION('',(0.,1.,0.));
#3010=DIRECTION('',(1.,0.,0.));
#3020=AXIS2_PLACEMENT_3D('',#2990,#3000,#3010);
#3030=CIRCLE('',#3020,1.635);
#3040=CARTESIAN_POINT('',(6.53500000000001,10.,0.));
#3050=VERTEX_POINT('',#3040);
#3060=CARTESIAN_POINT('',(3.26500000000001,10.,2.00229751660592E-16));
#3070=VERTEX_POINT('',#3060);
#3080=EDGE_CURVE('',#3050,#3070,#3030,.T.);
#3090=ORIENTED_EDGE('',*,*,#3080,.T.);
#3100=EDGE_CURVE('',#3070,#3050,#3030,.T.);
#3110=ORIENTED_EDGE('',*,*,#3100,.T.);
#3120=EDGE_LOOP('',(#3110,#3090));
#3130=FACE_BOUND('',#3120,.T.);
#3140=ORIENTED_EDGE('',*,*,#2670,.F.);
#3150=EDGE_CURVE('',#2550,#2660,#2640,.T.);
#3160=ORIENTED_EDGE('',*,*,#3150,.F.);
#3170=EDGE_LOOP('',(#3160,#3140));
#3180=FACE_OUTER_BOUND('',#3170,.T.);
#3190=ADVANCED_FACE('',(#3130,#3180),#2980,.T.);
#3200=CARTESIAN_POINT('',(4.90000000000001,8.5,0.));
#3210=DIRECTION('',(0.,-1.,0.));
#3220=DIRECTION('',(1.,0.,0.));
#3230=AXIS2_PLACEMENT_3D('',#3200,#3210,#3220);
#3240=CYLINDRICAL_SURFACE('',#3230,1.635);
#3250=CARTESIAN_POINT('',(6.53500000000001,8.5,0.));
#3260=DIRECTION('',(0.,-1.,0.));
#3270=VECTOR('',#3260,1.);
#3280=LINE('',#3250,#3270);
#3290=CARTESIAN_POINT('',(6.53500000000001,13.,0.));
#3300=VERTEX_POINT('',#3290);
#3310=EDGE_CURVE('',#3300,#3050,#3280,.T.);
#3320=ORIENTED_EDGE('',*,*,#3310,.T.);
#3330=CARTESIAN_POINT('',(4.90000000000001,13.,0.));
#3340=DIRECTION('',(0.,1.,0.));
#3350=DIRECTION('',(1.,0.,0.));
#3360=AXIS2_PLACEMENT_3D('',#3330,#3340,#3350);
#3370=CIRCLE('',#3360,1.635);
#3380=CARTESIAN_POINT('',(3.26500000000001,13.,2.00229751660592E-16));
#3390=VERTEX_POINT('',#3380);
#3400=EDGE_CURVE('',#3390,#3300,#3370,.T.);
#3410=ORIENTED_EDGE('',*,*,#3400,.T.);
#3420=CARTESIAN_POINT('',(3.26500000000001,8.5,2.00229751660592E-16));
#3430=DIRECTION('',(0.,-1.,0.));
#3440=VECTOR('',#3430,1.);
#3450=LINE('',#3420,#3440);
#3460=EDGE_CURVE('',#3390,#3070,#3450,.T.);
#3470=ORIENTED_EDGE('',*,*,#3460,.F.);
#3480=ORIENTED_EDGE('',*,*,#3100,.F.);
#3490=EDGE_LOOP('',(#3480,#3470,#3410,#3320));
#3500=FACE_OUTER_BOUND('',#3490,.T.);
#3510=ADVANCED_FACE('',(#3500),#3240,.F.);
#3520=CARTESIAN_POINT('',(4.90000000000001,13.,0.));
#3530=DIRECTION('',(0.,-1.,0.));
#3540=DIRECTION('',(1.,0.,0.));
#3550=AXIS2_PLACEMENT_3D('',#3520,#3530,#3540);
#3560=CONICAL_SURFACE('',#3550,1.635,1.02974425867666);
#3570=CARTESIAN_POINT('',(6.53500000000001,13.,0.));
#3580=DIRECTION('',(0.857167300702112,-0.515038074910054,0.));
#3590=VECTOR('',#3580,1.90744560444706);
#3600=LINE('',#3570,#3590);
#3610=CARTESIAN_POINT('',(4.90000000000001,13.9824071121101,
2.46519032881566E-32));
#3620=VERTEX_POINT('',#3610);
#3630=EDGE_CURVE('',#3620,#3300,#3600,.T.);
#3640=ORIENTED_EDGE('',*,*,#3630,.T.);
#3650=CARTESIAN_POINT('',(3.26500000000001,13.,2.00229751660592E-16));
#3660=DIRECTION('',(-0.857167300702112,-0.515038074910054,
1.04972719113862E-16));
#3670=VECTOR('',#3660,1.90744560444706);
#3680=LINE('',#3650,#3670);
#3690=EDGE_CURVE('',#3620,#3390,#3680,.T.);
#3700=ORIENTED_EDGE('',*,*,#3690,.F.);
#3710=ORIENTED_EDGE('',*,*,#3400,.F.);
#3720=EDGE_LOOP('',(#3710,#3700,#3640));
#3730=FACE_OUTER_BOUND('',#3720,.T.);
#3740=ADVANCED_FACE('',(#3730),#3560,.F.);
#3750=CARTESIAN_POINT('',(4.90000000000001,0.85,0.));
#3760=DIRECTION('',(0.,-1.,0.));
#3770=DIRECTION('',(-1.,0.,0.));
#3780=AXIS2_PLACEMENT_3D('',#3750,#3760,#3770);
#3790=CONICAL_SURFACE('',#3780,1.65,0.785398163397448);
#3800=CARTESIAN_POINT('',(6.55000000000001,0.85,-2.02066721859313E-16));
#3810=DIRECTION('',(0.707106781186548,-0.707106781186547,
-8.65956056235493E-17));
#3820=VECTOR('',#3810,2.33345237791561);
#3830=LINE('',#3800,#3820);
#3840=EDGE_CURVE('',#2740,#1100,#3830,.T.);
#3850=ORIENTED_EDGE('',*,*,#3840,.F.);
#3860=ORIENTED_EDGE('',*,*,#1150,.T.);
#3870=CARTESIAN_POINT('',(3.25000000000001,0.85,0.));
#3880=DIRECTION('',(-0.707106781186548,-0.707106781186548,0.));
#3890=VECTOR('',#3880,2.33345237791561);
#3900=LINE('',#3870,#3890);
#3910=EDGE_CURVE('',#2570,#1120,#3900,.T.);
#3920=ORIENTED_EDGE('',*,*,#3910,.T.);
#3930=ORIENTED_EDGE('',*,*,#2820,.F.);
#3940=EDGE_LOOP('',(#3930,#3920,#3860,#3850));
#3950=FACE_OUTER_BOUND('',#3940,.T.);
#3960=ADVANCED_FACE('',(#3950),#3790,.F.);
#3970=CARTESIAN_POINT('',(4.90000000000001,0.85,0.));
#3980=DIRECTION('',(0.,-1.,0.));
#3990=DIRECTION('',(-1.,0.,0.));
#4000=AXIS2_PLACEMENT_3D('',#3970,#3980,#3990);
#4010=CONICAL_SURFACE('',#4000,1.65,0.785398163397448);
#4020=ORIENTED_EDGE('',*,*,#1130,.T.);
#4030=ORIENTED_EDGE('',*,*,#3840,.T.);
#4040=EDGE_CURVE('',#2740,#2570,#2810,.T.);
#4050=ORIENTED_EDGE('',*,*,#4040,.F.);
#4060=ORIENTED_EDGE('',*,*,#3910,.F.);
#4070=EDGE_LOOP('',(#4060,#4050,#4030,#4020));
#4080=FACE_OUTER_BOUND('',#4070,.T.);
#4090=ADVANCED_FACE('',(#4080),#4010,.F.);
#4100=CARTESIAN_POINT('',(4.90000000000001,8.5,0.));
#4110=DIRECTION('',(0.,-1.,0.));
#4120=DIRECTION('',(1.,0.,0.));
#4130=AXIS2_PLACEMENT_3D('',#4100,#4110,#4120);
#4140=CYLINDRICAL_SURFACE('',#4130,1.635);
#4150=ORIENTED_EDGE('',*,*,#3080,.F.);
#4160=ORIENTED_EDGE('',*,*,#3460,.T.);
#4170=EDGE_CURVE('',#3300,#3390,#3370,.T.);
#4180=ORIENTED_EDGE('',*,*,#4170,.T.);
#4190=ORIENTED_EDGE('',*,*,#3310,.F.);
#4200=EDGE_LOOP('',(#4190,#4180,#4160,#4150));
#4210=FACE_OUTER_BOUND('',#4200,.T.);
#4220=ADVANCED_FACE('',(#4210),#4140,.F.);
#4230=CARTESIAN_POINT('',(4.90000000000001,43.2,0.));
#4240=DIRECTION('',(0.,-1.,0.));
#4250=DIRECTION('',(-1.,0.,0.));
#4260=AXIS2_PLACEMENT_3D('',#4230,#4240,#4250);
#4270=CONICAL_SURFACE('',#4260,9.90000000000001,0.88506681588861);
#4280=ORIENTED_EDGE('',*,*,#150,.F.);
#4290=ORIENTED_EDGE('',*,*,#2320,.F.);
#4300=EDGE_CURVE('',#2100,#2010,#2080,.T.);
#4310=ORIENTED_EDGE('',*,*,#4300,.T.);
#4320=ORIENTED_EDGE('',*,*,#2390,.T.);
#4330=EDGE_LOOP('',(#4320,#4310,#4290,#4280));
#4340=FACE_OUTER_BOUND('',#4330,.T.);
#4350=ADVANCED_FACE('',(#4340),#4270,.T.);
#4360=CARTESIAN_POINT('',(4.90000000000001,13.,0.));
#4370=DIRECTION('',(0.,-1.,0.));
#4380=DIRECTION('',(1.,0.,0.));
#4390=AXIS2_PLACEMENT_3D('',#4360,#4370,#4380);
#4400=CONICAL_SURFACE('',#4390,1.635,1.02974425867666);
#4410=ORIENTED_EDGE('',*,*,#3630,.F.);
#4420=ORIENTED_EDGE('',*,*,#4170,.F.);
#4430=ORIENTED_EDGE('',*,*,#3690,.T.);
#4440=EDGE_LOOP('',(#4430,#4420,#4410));
#4450=FACE_OUTER_BOUND('',#4440,.T.);
#4460=ADVANCED_FACE('',(#4450),#4400,.F.);
#4470=CARTESIAN_POINT('',(4.90000000000001,3.5,0.));
#4480=DIRECTION('',(0.,-1.,0.));
#4490=DIRECTION('',(1.,0.,0.));
#4500=AXIS2_PLACEMENT_3D('',#4470,#4480,#4490);
#4510=CYLINDRICAL_SURFACE('',#4500,1.65);
#4520=ORIENTED_EDGE('',*,*,#2580,.F.);
#4530=ORIENTED_EDGE('',*,*,#4040,.T.);
#4540=ORIENTED_EDGE('',*,*,#2750,.T.);
#4550=ORIENTED_EDGE('',*,*,#3150,.T.);
#4560=EDGE_LOOP('',(#4550,#4540,#4530,#4520));
#4570=FACE_OUTER_BOUND('',#4560,.T.);
#4580=ADVANCED_FACE('',(#4570),#4510,.F.);
#4590=COLOUR_RGB('',1.,0.,0.);
#4600=FILL_AREA_STYLE_COLOUR('',#4590);
#4610=FILL_AREA_STYLE('',(#4600));
#4620=SURFACE_STYLE_FILL_AREA(#4610);
#4630=SURFACE_SIDE_STYLE('',(#4620));
#4640=SURFACE_STYLE_USAGE(.BOTH.,#4630);
#4650=PRESENTATION_STYLE_ASSIGNMENT((#4640));
#4660=CARTESIAN_POINT('',(4.9,16.9894882233485,0.));
#4670=DIRECTION('',(0.,1.,0.));
#4680=DIRECTION('',(1.,0.,0.));
#4690=AXIS2_PLACEMENT_3D('',#4660,#4670,#4680);
#4700=CYLINDRICAL_SURFACE('',#4690,5.);
#4710=ORIENTED_EDGE('',*,*,#1190,.T.);
#4720=ORIENTED_EDGE('',*,*,#500,.F.);
#4730=EDGE_CURVE('',#490,#660,#730,.T.);
#4740=ORIENTED_EDGE('',*,*,#4730,.F.);
#4750=ORIENTED_EDGE('',*,*,#670,.T.);
#4760=EDGE_LOOP('',(#4750,#4740,#4720,#4710));
#4770=FACE_OUTER_BOUND('',#4760,.T.);
#4780=ADVANCED_FACE('',(#4770),#4700,.T.);
#4790=CARTESIAN_POINT('',(4.90000000000001,42.8,0.));
#4800=DIRECTION('',(0.,1.,0.));
#4810=DIRECTION('',(1.,0.,0.));
#4820=AXIS2_PLACEMENT_3D('',#4790,#4800,#4810);
#4830=CONICAL_SURFACE('',#4820,9.90000000000001,0.569655562042041);
#4840=EDGE_CURVE('',#1450,#1360,#1430,.T.);
#4850=ORIENTED_EDGE('',*,*,#4840,.T.);
#4860=ORIENTED_EDGE('',*,*,#1850,.F.);
#4870=EDGE_CURVE('',#1780,#1690,#1760,.T.);
#4880=ORIENTED_EDGE('',*,*,#4870,.F.);
#4890=ORIENTED_EDGE('',*,*,#1700,.T.);
#4900=EDGE_LOOP('',(#4890,#4880,#4860,#4850));
#4910=FACE_OUTER_BOUND('',#4900,.T.);
#4920=ADVANCED_FACE('',(#4910),#4830,.T.);
#4930=CARTESIAN_POINT('',(4.90000000000001,43.,0.));
#4940=DIRECTION('',(0.,-1.,0.));
#4950=DIRECTION('',(-1.,0.,0.));
#4960=AXIS2_PLACEMENT_3D('',#4930,#4940,#4950);
#4970=CYLINDRICAL_SURFACE('',#4960,9.90000000000001);
#4980=ORIENTED_EDGE('',*,*,#4300,.F.);
#4990=ORIENTED_EDGE('',*,*,#2020,.F.);
#5000=ORIENTED_EDGE('',*,*,#4870,.T.);
#5010=ORIENTED_EDGE('',*,*,#2170,.T.);
#5020=EDGE_LOOP('',(#5010,#5000,#4990,#4980));
#5030=FACE_OUTER_BOUND('',#5020,.T.);
#5040=ADVANCED_FACE('',(#5030),#4970,.T.);
#5050=CARTESIAN_POINT('',(4.90000000000001,33.1,0.));
#5060=DIRECTION('',(0.,1.,0.));
#5070=DIRECTION('',(-1.,0.,0.));
#5080=AXIS2_PLACEMENT_3D('',#5050,#5060,#5070);
#5090=TOROIDAL_SURFACE('',#5080,12.,7.);
#5100=ORIENTED_EDGE('',*,*,#4840,.F.);
#5110=ORIENTED_EDGE('',*,*,#1370,.T.);
#5120=ORIENTED_EDGE('',*,*,#4730,.T.);
#5130=ORIENTED_EDGE('',*,*,#1530,.F.);
#5140=EDGE_LOOP('',(#5130,#5120,#5110,#5100));
#5150=FACE_OUTER_BOUND('',#5140,.T.);
#5160=ADVANCED_FACE('',(#5150),#5090,.F.);
#5170=CARTESIAN_POINT('',(4.90000000000001,55.754347826087,0.));
#5180=DIRECTION('',(0.,1.,0.));
#5190=DIRECTION('',(1.,0.,0.));
#5200=AXIS2_PLACEMENT_3D('',#5170,#5180,#5190);
#5210=SPHERICAL_SURFACE('',#5200,13.054347826087);
#5220=ORIENTED_EDGE('',*,*,#300,.T.);
#5230=ORIENTED_EDGE('',*,*,#930,.T.);
#5240=ORIENTED_EDGE('',*,*,#910,.T.);
#5250=EDGE_LOOP('',(#5240,#5230,#5220));
#5260=FACE_OUTER_BOUND('',#5250,.T.);
#5270=ADVANCED_FACE('',(#5260),#5210,.F.);
#5280=CLOSED_SHELL('',(#360,#780,#980,#1240,#1580,#1900,#2220,#2440,
#2860,#3190,#3510,#3740,#3960,#4090,#4220,#4350,#4460,#4580,#4780,#4920,
#5040,#5160,#5270));
#5290=MANIFOLD_SOLID_BREP('',#5280);
#5300=CARTESIAN_POINT('',(0.,0.,0.));
#5310=DIRECTION('',(0.,0.,1.));
#5320=DIRECTION('',(1.,0.,0.));
#5330=AXIS2_PLACEMENT_3D('',#5300,#5310,#5320);
#5340=APPLICATION_CONTEXT(' ');
#5350=APPLICATION_PROTOCOL_DEFINITION(' ','automotive_design',1998,#5340
);
#5360=PRODUCT_CONTEXT('',#5340,'mechanical');
#5370=PRODUCT_DEFINITION_CONTEXT('part definition',#5340,'design');
#5380=PRODUCT('NI-10316','NI-10316','',(#5360));
#5390=PRODUCT_RELATED_PRODUCT_CATEGORY('part',' ',(#5380));
#5400=PRODUCT_DEFINITION_FORMATION_WITH_SPECIFIED_SOURCE('','',#5380,
.BOUGHT.);
#5410=PRODUCT_DEFINITION('',' ',#5400,#5370);
#5420=PRODUCT_DEFINITION_SHAPE('','',#5410);
#5430=DIMENSIONAL_EXPONENTS(1.,0.,0.,0.,0.,0.,0.);
#5440=DIMENSIONAL_EXPONENTS(0.,0.,0.,0.,0.,0.,0.);
#5450=DIMENSIONAL_EXPONENTS(0.,0.,0.,0.,0.,0.,0.);
#5460=(LENGTH_UNIT() NAMED_UNIT(*) SI_UNIT(.MILLI.,.METRE.));
#5470=(NAMED_UNIT(*) PLANE_ANGLE_UNIT() SI_UNIT($,.RADIAN.));
#5480=(NAMED_UNIT(*) SI_UNIT($,.STERADIAN.) SOLID_ANGLE_UNIT());
#5490=(GEOMETRIC_REPRESENTATION_CONTEXT(3) 
GLOBAL_UNCERTAINTY_ASSIGNED_CONTEXT((#5500)) 
GLOBAL_UNIT_ASSIGNED_CONTEXT((#5460,#5470,#5480)) REPRESENTATION_CONTEXT
('',''));
#5500=UNCERTAINTY_MEASURE_WITH_UNIT(LENGTH_MEASURE(1.E-6),#5460,
'distance_accuracy_value','maximum gap value');
#5510=ADVANCED_BREP_SHAPE_REPRESENTATION('',(#5330,#5290),#5490);
#5520=SHAPE_DEFINITION_REPRESENTATION(#5420,#5510);
#5530=COLOUR_RGB('',0.600000023841858,0.600000023841858,
0.600000023841858);
#5540=FILL_AREA_STYLE_COLOUR('',#5530);
#5550=FILL_AREA_STYLE('',(#5540));
#5560=SURFACE_STYLE_FILL_AREA(#5550);
#5570=SURFACE_SIDE_STYLE('',(#5560));
#5580=SURFACE_STYLE_USAGE(.BOTH.,#5570);
#5590=PRESENTATION_STYLE_ASSIGNMENT((#5580));
#5600=STYLED_ITEM('',(#5590),#5290);
#5610=OVER_RIDING_STYLED_ITEM('',(#2930),#2860,#5600);
#5620=OVER_RIDING_STYLED_ITEM('',(#4650),#4580,#5600);
#5630=DRAUGHTING_MODEL('',(#5600,#5610,#5620),#5490);
#5640=CARTESIAN_POINT('',(100.,0.,0.));
#5650=DIRECTION('',(0.,0.,1.));
#5660=DIRECTION('',(1.,0.,0.));
#5670=AXIS2_PLACEMENT_3D('',#5640,#5650,#5660);
#5680=ITEM_DEFINED_TRANSFORMATION('NI-10316','',#5330,#5670);
#5690=APPLICATION_CONTEXT(' ');
#5700=APPLICATION_PROTOCOL_DEFINITION(' ','automotive_design',1998,#5690
);
#5710=PRODUCT_CONTEXT('',#5690,'mechanical');
#5720=PRODUCT_DEFINITION_CONTEXT('part definition',#5690,'design');
#5730=PRODUCT('NI-10316','NI-10316','',(#5710));
#5740=PRODUCT_RELATED_PRODUCT_CATEGORY('part',' ',(#5730));
#5750=PRODUCT_DEFINITION_FORMATION_WITH_SPECIFIED_SOURCE('','',#5730,
.BOUGHT.);
#5760=PRODUCT_DEFINITION('',' ',#5750,#5720);
#5770=PRODUCT_DEFINITION_SHAPE('','',#5760);
#5780=DIMENSIONAL_EXPONENTS(1.,0.,0.,0.,0.,0.,0.);
#5790=DIMENSIONAL_EXPONENTS(0.,0.,0.,0.,0.,0.,0.);
#5800=DIMENSIONAL_EXPONENTS(0.,0.,0.,0.,0.,0.,0.);
#5810=(LENGTH_UNIT() NAMED_UNIT(*) SI_UNIT(.MILLI.,.METRE.));
#5820=(NAMED_UNIT(*) PLANE_ANGLE_UNIT() SI_UNIT($,.RADIAN.));
#5830=(NAMED_UNIT(*) SI_UNIT($,.STERADIAN.) SOLID_ANGLE_UNIT());
#5840=(GEOMETRIC_REPRESENTATION_CONTEXT(3) 
GLOBAL_UNCERTAINTY_ASSIGNED_CONTEXT((#5850)) 
GLOBAL_UNIT_ASSIGNED_CONTEXT((#5810,#5820,#5830)) REPRESENTATION_CONTEXT
('',''));
#5850=UNCERTAINTY_MEASURE_WITH_UNIT(LENGTH_MEASURE(1.E-6),#5810,
'distance_accuracy_value','maximum gap value');
#5860=SHAPE_REPRESENTATION('',(#5330,#5670),#5840);
#5870=SHAPE_DEFINITION_REPRESENTATION(#5770,#5860);
#5880=(REPRESENTATION_RELATIONSHIP('','',#5510,#5860) 
REPRESENTATION_RELATIONSHIP_WITH_TRANSFORMATION(#5680) 
SHAPE_REPRESENTATION_RELATIONSHIP());
#5890=NEXT_ASSEMBLY_USAGE_OCCURRENCE('1','','NI-10316',#5760,#5410,'');
#5900=PRODUCT_DEFINITION_SHAPE('','',#5890);
#5910=CONTEXT_DEPENDENT_SHAPE_REPRESENTATION(#5880,#5900);
ENDSEC;
END-ISO-10303-21;
