ISO-10303-21;
HEADER;
FILE_DESCRIPTION(('Creo Elements/Direct Modeling STEP Export'),'2;1');
FILE_NAME('2416-16.stp','2022-01-26T11:31:59',(''),(''),
'Creo Elements/Direct Modeling STEP processor for AP214 (Solid Model)',
'Creo Elements/Direct Modeling 20.0  12-Nov-2016 (C) Parametric Technolo
gy GmbH','');
FILE_SCHEMA(('AUTOMOTIVE_DESIGN { 1 0 10303 214 1 1 1 1 }'));
ENDSEC;
DATA;
#10=CARTESIAN_POINT('',(1.95,-22.,0.));
#20=DIRECTION('',(-0.,1.,0.));
#30=DIRECTION('',(1.,0.,0.));
#40=AXIS2_PLACEMENT_3D('',#10,#20,#30);
#50=PLANE('',#40);
#60=CARTESIAN_POINT('',(0.,-22.,0.));
#70=DIRECTION('',(0.,-1.,0.));
#80=DIRECTION('',(-1.,0.,0.));
#90=AXIS2_PLACEMENT_3D('',#60,#70,#80);
#100=CIRCLE('',#90,2.5);
#110=CARTESIAN_POINT('',(2.5,-22.,-3.06161699786838E-16));
#120=VERTEX_POINT('',#110);
#130=CARTESIAN_POINT('',(-2.5,-22.,0.));
#140=VERTEX_POINT('',#130);
#150=EDGE_CURVE('',#120,#140,#100,.T.);
#160=ORIENTED_EDGE('',*,*,#150,.F.);
#170=EDGE_CURVE('',#140,#120,#100,.T.);
#180=ORIENTED_EDGE('',*,*,#170,.F.);
#190=EDGE_LOOP('',(#180,#160));
#200=FACE_BOUND('',#190,.T.);
#210=CARTESIAN_POINT('',(0.,-22.,0.));
#220=DIRECTION('',(0.,1.,0.));
#230=DIRECTION('',(1.,0.,0.));
#240=AXIS2_PLACEMENT_3D('',#210,#220,#230);
#250=CIRCLE('',#240,3.89999999999999);
#260=CARTESIAN_POINT('',(3.89999999999999,-22.,0.));
#270=VERTEX_POINT('',#260);
#280=CARTESIAN_POINT('',(-3.89999999999999,-22.,0.));
#290=VERTEX_POINT('',#280);
#300=EDGE_CURVE('',#270,#290,#250,.T.);
#310=ORIENTED_EDGE('',*,*,#300,.F.);
#320=EDGE_CURVE('',#290,#270,#250,.T.);
#330=ORIENTED_EDGE('',*,*,#320,.F.);
#340=EDGE_LOOP('',(#330,#310));
#350=FACE_OUTER_BOUND('',#340,.T.);
#360=ADVANCED_FACE('',(#200,#350),#50,.F.);
#370=CARTESIAN_POINT('',(0.,-26.2516760754157,0.));
#380=DIRECTION('',(0.,1.,0.));
#390=DIRECTION('',(1.,0.,0.));
#400=AXIS2_PLACEMENT_3D('',#370,#380,#390);
#410=TOROIDAL_SURFACE('',#400,83.7860143123413,79.9990751956662);
#420=CARTESIAN_POINT('',(83.7860143123413,-26.2516760754157,0.));
#430=DIRECTION('',(0.,0.,-1.));
#440=DIRECTION('',(1.,0.,0.));
#450=AXIS2_PLACEMENT_3D('',#420,#430,#440);
#460=CIRCLE('',#450,79.9990751956662);
#470=CARTESIAN_POINT('',(7.65463808846894,-1.67799937816371,0.));
#480=VERTEX_POINT('',#470);
#490=EDGE_CURVE('',#270,#480,#460,.T.);
#500=ORIENTED_EDGE('',*,*,#490,.T.);
#510=ORIENTED_EDGE('',*,*,#320,.T.);
#520=CARTESIAN_POINT('',(-83.7860143123413,-26.2516760754157,0.));
#530=DIRECTION('',(0.,0.,1.));
#540=DIRECTION('',(-1.,0.,0.));
#550=AXIS2_PLACEMENT_3D('',#520,#530,#540);
#560=CIRCLE('',#550,79.9990751956662);
#570=CARTESIAN_POINT('',(-7.65463808846894,-1.67799937816371,0.));
#580=VERTEX_POINT('',#570);
#590=EDGE_CURVE('',#290,#580,#560,.T.);
#600=ORIENTED_EDGE('',*,*,#590,.F.);
#610=CARTESIAN_POINT('',(0.,-1.67799937816368,0.));
#620=DIRECTION('',(0.,1.,0.));
#630=DIRECTION('',(1.,0.,0.));
#640=AXIS2_PLACEMENT_3D('',#610,#620,#630);
#650=CIRCLE('',#640,7.65463808846895);
#660=EDGE_CURVE('',#580,#480,#650,.T.);
#670=ORIENTED_EDGE('',*,*,#660,.F.);
#680=EDGE_LOOP('',(#670,#600,#510,#500));
#690=FACE_OUTER_BOUND('',#680,.T.);
#700=ADVANCED_FACE('',(#690),#410,.F.);
#710=CARTESIAN_POINT('',(-2.99760216648792E-15,8.,0.));
#720=CARTESIAN_POINT('',(1.04404716874467,8.,0.));
#730=CARTESIAN_POINT('',(3.11481297015458,7.61764297147455,0.));
#740=CARTESIAN_POINT('',(5.77476632466162,5.96848648131226,0.));
#750=CARTESIAN_POINT('',(7.57347983847622,3.47220035191048,0.));
#760=CARTESIAN_POINT('',(8.21131857713275,0.500000000000006,0.));
#770=CARTESIAN_POINT('',(7.57347983847622,-2.47220035191048,0.));
#780=CARTESIAN_POINT('',(5.77476632466162,-4.96848648131226,0.));
#790=CARTESIAN_POINT('',(3.11481297015459,-6.61764297147454,0.));
#800=CARTESIAN_POINT('',(1.04404716874467,-7.,0.));
#810=CARTESIAN_POINT('',(-2.33146835171283E-15,-7.,0.));
#820=B_SPLINE_CURVE_WITH_KNOTS('',3,(#710,#720,#730,#740,#750,#760,#770,
#780,#790,#800,#810),.UNSPECIFIED.,.F.,.F.,(4,1,1,1,1,1,1,1,4),(
33.3622228761082,36.4764665748868,39.5390217236554,42.5269521766255,
45.4609696639036,48.3949871511816,51.3829176041517,54.4454727529203,
57.559716451699),.UNSPECIFIED.);
#830=CARTESIAN_POINT('',(0.,19.1519018409587,0.));
#840=DIRECTION('',(0.,1.,0.));
#850=AXIS1_PLACEMENT('',#830,#840);
#860=SURFACE_OF_REVOLUTION('',#820,#850);
#870=CARTESIAN_POINT('',(2.99760216648792E-15,8.,0.));
#880=CARTESIAN_POINT('',(-1.04404716874467,8.,0.));
#890=CARTESIAN_POINT('',(-3.11481297015458,7.61764297147455,0.));
#900=CARTESIAN_POINT('',(-5.77476632466162,5.96848648131226,0.));
#910=CARTESIAN_POINT('',(-7.57347983847622,3.47220035191048,0.));
#920=CARTESIAN_POINT('',(-8.21131857713275,0.500000000000007,0.));
#930=CARTESIAN_POINT('',(-7.57347983847622,-2.47220035191048,0.));
#940=CARTESIAN_POINT('',(-5.77476632466162,-4.96848648131226,0.));
#950=CARTESIAN_POINT('',(-3.11481297015459,-6.61764297147455,0.));
#960=CARTESIAN_POINT('',(-1.04404716874467,-7.,0.));
#970=CARTESIAN_POINT('',(2.33146835171283E-15,-7.,0.));
#980=B_SPLINE_CURVE_WITH_KNOTS('',3,(#870,#880,#890,#900,#910,#920,#930,
#940,#950,#960,#970),.UNSPECIFIED.,.F.,.F.,(4,1,1,1,1,1,1,1,4),(
33.3622228761082,36.4764665748868,39.5390217236554,42.5269521766255,
45.4609696639036,48.3949871511816,51.3829176041517,54.4454727529203,
57.559716451699),.UNSPECIFIED.);
#990=CARTESIAN_POINT('',(2.99760216648792E-15,8.,0.));
#1000=VERTEX_POINT('',#990);
#1010=EDGE_CURVE('',#1000,#580,#980,.T.);
#1020=ORIENTED_EDGE('',*,*,#1010,.T.);
#1030=CARTESIAN_POINT('',(-2.99760216648792E-15,8.,0.));
#1040=CARTESIAN_POINT('',(1.04404716874467,8.,0.));
#1050=CARTESIAN_POINT('',(3.11481297015458,7.61764297147455,0.));
#1060=CARTESIAN_POINT('',(5.77476632466162,5.96848648131226,0.));
#1070=CARTESIAN_POINT('',(7.57347983847622,3.47220035191048,0.));
#1080=CARTESIAN_POINT('',(8.21131857713275,0.500000000000007,0.));
#1090=CARTESIAN_POINT('',(7.57347983847622,-2.47220035191048,0.));
#1100=CARTESIAN_POINT('',(5.77476632466162,-4.96848648131226,0.));
#1110=CARTESIAN_POINT('',(3.11481297015459,-6.61764297147455,0.));
#1120=CARTESIAN_POINT('',(1.04404716874467,-7.,0.));
#1130=CARTESIAN_POINT('',(-2.33146835171283E-15,-7.,0.));
#1140=B_SPLINE_CURVE_WITH_KNOTS('',3,(#1030,#1040,#1050,#1060,#1070,
#1080,#1090,#1100,#1110,#1120,#1130),.UNSPECIFIED.,.F.,.F.,(4,1,1,1,1,1,
1,1,4),(33.3622228761082,36.4764665748868,39.5390217236554,
42.5269521766255,45.4609696639036,48.3949871511816,51.3829176041517,
54.4454727529203,57.559716451699),.UNSPECIFIED.);
#1150=EDGE_CURVE('',#1000,#480,#1140,.T.);
#1160=ORIENTED_EDGE('',*,*,#1150,.F.);
#1170=ORIENTED_EDGE('',*,*,#660,.T.);
#1180=EDGE_LOOP('',(#1170,#1160,#1020));
#1190=FACE_OUTER_BOUND('',#1180,.T.);
#1200=ADVANCED_FACE('',(#1190),#860,.F.);
#1210=CARTESIAN_POINT('',(0.,-18.5,0.));
#1220=DIRECTION('',(0.,-1.,0.));
#1230=DIRECTION('',(1.,0.,0.));
#1240=AXIS2_PLACEMENT_3D('',#1210,#1220,#1230);
#1250=CYLINDRICAL_SURFACE('',#1240,1.65);
#1260=CARTESIAN_POINT('',(-1.65,-18.5,2.02066721859313E-16));
#1270=DIRECTION('',(0.,-1.,0.));
#1280=VECTOR('',#1270,1.);
#1290=LINE('',#1260,#1280);
#1300=CARTESIAN_POINT('',(-1.65,-15.,2.02066721859313E-16));
#1310=VERTEX_POINT('',#1300);
#1320=CARTESIAN_POINT('',(-1.65,-21.15,2.02066721859313E-16));
#1330=VERTEX_POINT('',#1320);
#1340=EDGE_CURVE('',#1310,#1330,#1290,.T.);
#1350=ORIENTED_EDGE('',*,*,#1340,.T.);
#1360=CARTESIAN_POINT('',(0.,-15.,0.));
#1370=DIRECTION('',(0.,1.,0.));
#1380=DIRECTION('',(1.,0.,0.));
#1390=AXIS2_PLACEMENT_3D('',#1360,#1370,#1380);
#1400=CIRCLE('',#1390,1.65);
#1410=CARTESIAN_POINT('',(1.65,-15.,0.));
#1420=VERTEX_POINT('',#1410);
#1430=EDGE_CURVE('',#1420,#1310,#1400,.T.);
#1440=ORIENTED_EDGE('',*,*,#1430,.T.);
#1450=CARTESIAN_POINT('',(1.65,-18.5,0.));
#1460=DIRECTION('',(0.,-1.,0.));
#1470=VECTOR('',#1460,1.);
#1480=LINE('',#1450,#1470);
#1490=CARTESIAN_POINT('',(1.65,-21.15,0.));
#1500=VERTEX_POINT('',#1490);
#1510=EDGE_CURVE('',#1420,#1500,#1480,.T.);
#1520=ORIENTED_EDGE('',*,*,#1510,.F.);
#1530=CARTESIAN_POINT('',(0.,-21.15,0.));
#1540=DIRECTION('',(0.,-1.,0.));
#1550=DIRECTION('',(-1.,0.,0.));
#1560=AXIS2_PLACEMENT_3D('',#1530,#1540,#1550);
#1570=CIRCLE('',#1560,1.65);
#1580=EDGE_CURVE('',#1330,#1500,#1570,.T.);
#1590=ORIENTED_EDGE('',*,*,#1580,.T.);
#1600=EDGE_LOOP('',(#1590,#1520,#1440,#1350));
#1610=FACE_OUTER_BOUND('',#1600,.T.);
#1620=ADVANCED_FACE('M4_1065081',(#1610),#1250,.F.);
#1630=COLOUR_RGB('',1.,0.,0.);
#1640=FILL_AREA_STYLE_COLOUR('',#1630);
#1650=FILL_AREA_STYLE('',(#1640));
#1660=SURFACE_STYLE_FILL_AREA(#1650);
#1670=SURFACE_SIDE_STYLE('',(#1660));
#1680=SURFACE_STYLE_USAGE(.BOTH.,#1670);
#1690=PRESENTATION_STYLE_ASSIGNMENT((#1680));
#1700=CARTESIAN_POINT('',(1.6425,-15.,0.));
#1710=DIRECTION('',(0.,-1.,0.));
#1720=DIRECTION('',(1.,0.,0.));
#1730=AXIS2_PLACEMENT_3D('',#1700,#1710,#1720);
#1740=PLANE('',#1730);
#1750=ORIENTED_EDGE('',*,*,#1430,.F.);
#1760=EDGE_CURVE('',#1310,#1420,#1400,.T.);
#1770=ORIENTED_EDGE('',*,*,#1760,.F.);
#1780=EDGE_LOOP('',(#1770,#1750));
#1790=FACE_OUTER_BOUND('',#1780,.T.);
#1800=CARTESIAN_POINT('',(0.,-15.,0.));
#1810=DIRECTION('',(0.,1.,0.));
#1820=DIRECTION('',(1.,0.,0.));
#1830=AXIS2_PLACEMENT_3D('',#1800,#1810,#1820);
#1840=CIRCLE('',#1830,1.635);
#1850=CARTESIAN_POINT('',(1.635,-15.,0.));
#1860=VERTEX_POINT('',#1850);
#1870=CARTESIAN_POINT('',(-1.635,-15.,2.00229751660592E-16));
#1880=VERTEX_POINT('',#1870);
#1890=EDGE_CURVE('',#1860,#1880,#1840,.T.);
#1900=ORIENTED_EDGE('',*,*,#1890,.T.);
#1910=EDGE_CURVE('',#1880,#1860,#1840,.T.);
#1920=ORIENTED_EDGE('',*,*,#1910,.T.);
#1930=EDGE_LOOP('',(#1920,#1900));
#1940=FACE_BOUND('',#1930,.T.);
#1950=ADVANCED_FACE('',(#1790,#1940),#1740,.T.);
#1960=CARTESIAN_POINT('',(0.,-13.5,0.));
#1970=DIRECTION('',(0.,-1.,0.));
#1980=DIRECTION('',(1.,0.,0.));
#1990=AXIS2_PLACEMENT_3D('',#1960,#1970,#1980);
#2000=CYLINDRICAL_SURFACE('',#1990,1.635);
#2010=CARTESIAN_POINT('',(1.635,-13.5,0.));
#2020=DIRECTION('',(0.,-1.,0.));
#2030=VECTOR('',#2020,1.);
#2040=LINE('',#2010,#2030);
#2050=CARTESIAN_POINT('',(1.635,-12.,0.));
#2060=VERTEX_POINT('',#2050);
#2070=EDGE_CURVE('',#2060,#1860,#2040,.T.);
#2080=ORIENTED_EDGE('',*,*,#2070,.T.);
#2090=CARTESIAN_POINT('',(0.,-12.,0.));
#2100=DIRECTION('',(0.,1.,0.));
#2110=DIRECTION('',(1.,0.,0.));
#2120=AXIS2_PLACEMENT_3D('',#2090,#2100,#2110);
#2130=CIRCLE('',#2120,1.635);
#2140=CARTESIAN_POINT('',(-1.635,-12.,2.00229751660592E-16));
#2150=VERTEX_POINT('',#2140);
#2160=EDGE_CURVE('',#2150,#2060,#2130,.T.);
#2170=ORIENTED_EDGE('',*,*,#2160,.T.);
#2180=CARTESIAN_POINT('',(-1.635,-13.5,2.00229751660592E-16));
#2190=DIRECTION('',(0.,-1.,0.));
#2200=VECTOR('',#2190,1.);
#2210=LINE('',#2180,#2200);
#2220=EDGE_CURVE('',#2150,#1880,#2210,.T.);
#2230=ORIENTED_EDGE('',*,*,#2220,.F.);
#2240=ORIENTED_EDGE('',*,*,#1910,.F.);
#2250=EDGE_LOOP('',(#2240,#2230,#2170,#2080));
#2260=FACE_OUTER_BOUND('',#2250,.T.);
#2270=ADVANCED_FACE('',(#2260),#2000,.F.);
#2280=CARTESIAN_POINT('',(0.,-12.,0.));
#2290=DIRECTION('',(0.,-1.,0.));
#2300=DIRECTION('',(1.,0.,0.));
#2310=AXIS2_PLACEMENT_3D('',#2280,#2290,#2300);
#2320=CONICAL_SURFACE('',#2310,1.635,1.02974425867666);
#2330=CARTESIAN_POINT('',(1.635,-12.,0.));
#2340=DIRECTION('',(0.857167300702113,-0.515038074910054,0.));
#2350=VECTOR('',#2340,1.90744560444706);
#2360=LINE('',#2330,#2350);
#2370=CARTESIAN_POINT('',(-2.22044604925031E-16,-11.0175928878899,
2.46519032881566E-32));
#2380=VERTEX_POINT('',#2370);
#2390=EDGE_CURVE('',#2380,#2060,#2360,.T.);
#2400=ORIENTED_EDGE('',*,*,#2390,.T.);
#2410=CARTESIAN_POINT('',(-1.635,-12.,2.00229751660592E-16));
#2420=DIRECTION('',(-0.857167300702113,-0.515038074910054,
1.04972719113862E-16));
#2430=VECTOR('',#2420,1.90744560444706);
#2440=LINE('',#2410,#2430);
#2450=EDGE_CURVE('',#2380,#2150,#2440,.T.);
#2460=ORIENTED_EDGE('',*,*,#2450,.F.);
#2470=ORIENTED_EDGE('',*,*,#2160,.F.);
#2480=EDGE_LOOP('',(#2470,#2460,#2400));
#2490=FACE_OUTER_BOUND('',#2480,.T.);
#2500=ADVANCED_FACE('',(#2490),#2320,.F.);
#2510=CARTESIAN_POINT('',(0.,-21.15,0.));
#2520=DIRECTION('',(0.,-1.,0.));
#2530=DIRECTION('',(-1.,0.,0.));
#2540=AXIS2_PLACEMENT_3D('',#2510,#2520,#2530);
#2550=CONICAL_SURFACE('',#2540,1.65,0.785398163397448);
#2560=CARTESIAN_POINT('',(1.65,-21.15,-2.02066721859313E-16));
#2570=DIRECTION('',(0.707106781186547,-0.707106781186548,
-8.65956056235493E-17));
#2580=VECTOR('',#2570,2.33345237791561);
#2590=LINE('',#2560,#2580);
#2600=EDGE_CURVE('',#1500,#120,#2590,.T.);
#2610=ORIENTED_EDGE('',*,*,#2600,.F.);
#2620=ORIENTED_EDGE('',*,*,#170,.T.);
#2630=CARTESIAN_POINT('',(-1.65,-21.15,0.));
#2640=DIRECTION('',(-0.707106781186547,-0.707106781186548,0.));
#2650=VECTOR('',#2640,2.33345237791561);
#2660=LINE('',#2630,#2650);
#2670=EDGE_CURVE('',#1330,#140,#2660,.T.);
#2680=ORIENTED_EDGE('',*,*,#2670,.T.);
#2690=ORIENTED_EDGE('',*,*,#1580,.F.);
#2700=EDGE_LOOP('',(#2690,#2680,#2620,#2610));
#2710=FACE_OUTER_BOUND('',#2700,.T.);
#2720=ADVANCED_FACE('',(#2710),#2550,.F.);
#2730=CARTESIAN_POINT('',(0.,-13.5,0.));
#2740=DIRECTION('',(0.,-1.,0.));
#2750=DIRECTION('',(1.,0.,0.));
#2760=AXIS2_PLACEMENT_3D('',#2730,#2740,#2750);
#2770=CYLINDRICAL_SURFACE('',#2760,1.635);
#2780=ORIENTED_EDGE('',*,*,#1890,.F.);
#2790=ORIENTED_EDGE('',*,*,#2220,.T.);
#2800=EDGE_CURVE('',#2060,#2150,#2130,.T.);
#2810=ORIENTED_EDGE('',*,*,#2800,.T.);
#2820=ORIENTED_EDGE('',*,*,#2070,.F.);
#2830=EDGE_LOOP('',(#2820,#2810,#2790,#2780));
#2840=FACE_OUTER_BOUND('',#2830,.T.);
#2850=ADVANCED_FACE('',(#2840),#2770,.F.);
#2860=CARTESIAN_POINT('',(0.,-18.5,0.));
#2870=DIRECTION('',(0.,-1.,0.));
#2880=DIRECTION('',(1.,0.,0.));
#2890=AXIS2_PLACEMENT_3D('',#2860,#2870,#2880);
#2900=CYLINDRICAL_SURFACE('',#2890,1.65);
#2910=ORIENTED_EDGE('',*,*,#1340,.F.);
#2920=EDGE_CURVE('',#1500,#1330,#1570,.T.);
#2930=ORIENTED_EDGE('',*,*,#2920,.T.);
#2940=ORIENTED_EDGE('',*,*,#1510,.T.);
#2950=ORIENTED_EDGE('',*,*,#1760,.T.);
#2960=EDGE_LOOP('',(#2950,#2940,#2930,#2910));
#2970=FACE_OUTER_BOUND('',#2960,.T.);
#2980=ADVANCED_FACE('',(#2970),#2900,.F.);
#2990=COLOUR_RGB('',1.,0.,0.);
#3000=FILL_AREA_STYLE_COLOUR('',#2990);
#3010=FILL_AREA_STYLE('',(#3000));
#3020=SURFACE_STYLE_FILL_AREA(#3010);
#3030=SURFACE_SIDE_STYLE('',(#3020));
#3040=SURFACE_STYLE_USAGE(.BOTH.,#3030);
#3050=PRESENTATION_STYLE_ASSIGNMENT((#3040));
#3060=CARTESIAN_POINT('',(0.,-21.15,0.));
#3070=DIRECTION('',(0.,-1.,0.));
#3080=DIRECTION('',(-1.,0.,0.));
#3090=AXIS2_PLACEMENT_3D('',#3060,#3070,#3080);
#3100=CONICAL_SURFACE('',#3090,1.65,0.785398163397448);
#3110=ORIENTED_EDGE('',*,*,#150,.T.);
#3120=ORIENTED_EDGE('',*,*,#2600,.T.);
#3130=ORIENTED_EDGE('',*,*,#2920,.F.);
#3140=ORIENTED_EDGE('',*,*,#2670,.F.);
#3150=EDGE_LOOP('',(#3140,#3130,#3120,#3110));
#3160=FACE_OUTER_BOUND('',#3150,.T.);
#3170=ADVANCED_FACE('',(#3160),#3100,.F.);
#3180=CARTESIAN_POINT('',(0.,-12.,0.));
#3190=DIRECTION('',(0.,-1.,0.));
#3200=DIRECTION('',(1.,0.,0.));
#3210=AXIS2_PLACEMENT_3D('',#3180,#3190,#3200);
#3220=CONICAL_SURFACE('',#3210,1.635,1.02974425867666);
#3230=ORIENTED_EDGE('',*,*,#2390,.F.);
#3240=ORIENTED_EDGE('',*,*,#2800,.F.);
#3250=ORIENTED_EDGE('',*,*,#2450,.T.);
#3260=EDGE_LOOP('',(#3250,#3240,#3230));
#3270=FACE_OUTER_BOUND('',#3260,.T.);
#3280=ADVANCED_FACE('',(#3270),#3220,.F.);
#3290=CARTESIAN_POINT('',(-2.99760216648792E-15,8.,0.));
#3300=CARTESIAN_POINT('',(1.04404716874467,8.,0.));
#3310=CARTESIAN_POINT('',(3.11481297015458,7.61764297147455,0.));
#3320=CARTESIAN_POINT('',(5.77476632466162,5.96848648131226,0.));
#3330=CARTESIAN_POINT('',(7.57347983847622,3.47220035191048,0.));
#3340=CARTESIAN_POINT('',(8.21131857713275,0.500000000000006,0.));
#3350=CARTESIAN_POINT('',(7.57347983847622,-2.47220035191048,0.));
#3360=CARTESIAN_POINT('',(5.77476632466162,-4.96848648131226,0.));
#3370=CARTESIAN_POINT('',(3.11481297015459,-6.61764297147454,0.));
#3380=CARTESIAN_POINT('',(1.04404716874467,-7.,0.));
#3390=CARTESIAN_POINT('',(-2.33146835171283E-15,-7.,0.));
#3400=B_SPLINE_CURVE_WITH_KNOTS('',3,(#3290,#3300,#3310,#3320,#3330,
#3340,#3350,#3360,#3370,#3380,#3390),.UNSPECIFIED.,.F.,.F.,(4,1,1,1,1,1,
1,1,4),(33.3622228761082,36.4764665748868,39.5390217236554,
42.5269521766255,45.4609696639036,48.3949871511816,51.3829176041517,
54.4454727529203,57.559716451699),.UNSPECIFIED.);
#3410=CARTESIAN_POINT('',(0.,19.1519018409587,0.));
#3420=DIRECTION('',(0.,1.,0.));
#3430=AXIS1_PLACEMENT('',#3410,#3420);
#3440=SURFACE_OF_REVOLUTION('',#3400,#3430);
#3450=EDGE_CURVE('',#480,#580,#650,.T.);
#3460=ORIENTED_EDGE('',*,*,#3450,.T.);
#3470=ORIENTED_EDGE('',*,*,#1150,.T.);
#3480=ORIENTED_EDGE('',*,*,#1010,.F.);
#3490=EDGE_LOOP('',(#3480,#3470,#3460));
#3500=FACE_OUTER_BOUND('',#3490,.T.);
#3510=ADVANCED_FACE('',(#3500),#3440,.F.);
#3520=CARTESIAN_POINT('',(0.,-26.2516760754157,0.));
#3530=DIRECTION('',(0.,1.,0.));
#3540=DIRECTION('',(1.,0.,0.));
#3550=AXIS2_PLACEMENT_3D('',#3520,#3530,#3540);
#3560=TOROIDAL_SURFACE('',#3550,83.7860143123413,79.9990751956662);
#3570=ORIENTED_EDGE('',*,*,#3450,.F.);
#3580=ORIENTED_EDGE('',*,*,#590,.T.);
#3590=ORIENTED_EDGE('',*,*,#300,.T.);
#3600=ORIENTED_EDGE('',*,*,#490,.F.);
#3610=EDGE_LOOP('',(#3600,#3590,#3580,#3570));
#3620=FACE_OUTER_BOUND('',#3610,.T.);
#3630=ADVANCED_FACE('',(#3620),#3560,.F.);
#3640=CLOSED_SHELL('',(#360,#700,#1200,#1620,#1950,#2270,#2500,#2720,
#2850,#2980,#3170,#3280,#3510,#3630));
#3650=MANIFOLD_SOLID_BREP('',#3640);
#3660=CARTESIAN_POINT('',(0.,0.,0.));
#3670=DIRECTION('',(0.,0.,1.));
#3680=DIRECTION('',(1.,0.,0.));
#3690=AXIS2_PLACEMENT_3D('',#3660,#3670,#3680);
#3700=APPLICATION_CONTEXT(' ');
#3710=APPLICATION_PROTOCOL_DEFINITION(' ','automotive_design',1998,#3700
);
#3720=PRODUCT_CONTEXT('',#3700,'mechanical');
#3730=PRODUCT_DEFINITION_CONTEXT('part definition',#3700,'design');
#3740=PRODUCT('2416-16','2416-16','',(#3720));
#3750=PRODUCT_RELATED_PRODUCT_CATEGORY('part',' ',(#3740));
#3760=PRODUCT_DEFINITION_FORMATION_WITH_SPECIFIED_SOURCE('','',#3740,
.BOUGHT.);
#3770=PRODUCT_DEFINITION('',' ',#3760,#3730);
#3780=PRODUCT_DEFINITION_SHAPE('','',#3770);
#3790=DIMENSIONAL_EXPONENTS(1.,0.,0.,0.,0.,0.,0.);
#3800=DIMENSIONAL_EXPONENTS(0.,0.,0.,0.,0.,0.,0.);
#3810=DIMENSIONAL_EXPONENTS(0.,0.,0.,0.,0.,0.,0.);
#3820=(LENGTH_UNIT() NAMED_UNIT(*) SI_UNIT(.MILLI.,.METRE.));
#3830=(NAMED_UNIT(*) PLANE_ANGLE_UNIT() SI_UNIT($,.RADIAN.));
#3840=(NAMED_UNIT(*) SI_UNIT($,.STERADIAN.) SOLID_ANGLE_UNIT());
#3850=(GEOMETRIC_REPRESENTATION_CONTEXT(3) 
GLOBAL_UNCERTAINTY_ASSIGNED_CONTEXT((#3860)) 
GLOBAL_UNIT_ASSIGNED_CONTEXT((#3820,#3830,#3840)) REPRESENTATION_CONTEXT
('',''));
#3860=UNCERTAINTY_MEASURE_WITH_UNIT(LENGTH_MEASURE(1.E-6),#3820,
'distance_accuracy_value','maximum gap value');
#3870=ADVANCED_BREP_SHAPE_REPRESENTATION('',(#3690,#3650),#3850);
#3880=SHAPE_DEFINITION_REPRESENTATION(#3780,#3870);
#3890=COLOUR_RGB('',0.600000023841858,0.600000023841858,
0.600000023841858);
#3900=FILL_AREA_STYLE_COLOUR('',#3890);
#3910=FILL_AREA_STYLE('',(#3900));
#3920=SURFACE_STYLE_FILL_AREA(#3910);
#3930=SURFACE_SIDE_STYLE('',(#3920));
#3940=SURFACE_STYLE_USAGE(.BOTH.,#3930);
#3950=PRESENTATION_STYLE_ASSIGNMENT((#3940));
#3960=STYLED_ITEM('',(#3950),#3650);
#3970=OVER_RIDING_STYLED_ITEM('',(#1690),#1620,#3960);
#3980=OVER_RIDING_STYLED_ITEM('',(#3050),#2980,#3960);
#3990=DRAUGHTING_MODEL('',(#3960,#3970,#3980),#3850);
ENDSEC;
END-ISO-10303-21;
