ISO-10303-21;
HEADER;
FILE_DESCRIPTION(('Creo Elements/Direct Modeling STEP Export'),'2;1');
FILE_NAME('0385-32.stp','2018-11-16T11:31:26',(''),(''),
'Creo Elements/Direct Modeling STEP processor for AP214 (Solid Model)',
'Creo Elements/Direct Modeling 20.0  12-Nov-2016 (C) Parametric Technolo
gy GmbH','');
FILE_SCHEMA(('AUTOMOTIVE_DESIGN { 1 0 10303 214 1 1 1 1 }'));
ENDSEC;
DATA;
#10=CARTESIAN_POINT('',(0.,0.,0.));
#20=DIRECTION('',(0.,1.,0.));
#30=DIRECTION('',(1.,0.,0.));
#40=AXIS2_PLACEMENT_3D('',#10,#20,#30);
#50=TOROIDAL_SURFACE('',#40,10.6875,5.3125);
#60=CARTESIAN_POINT('',(0.,5.05405405405406,0.));
#70=DIRECTION('',(0.,1.,0.));
#80=DIRECTION('',(1.,0.,0.));
#90=AXIS2_PLACEMENT_3D('',#60,#70,#80);
#100=CIRCLE('',#90,12.3243243243243);
#110=CARTESIAN_POINT('',(0.,5.05405405405406,12.3243243243243));
#120=VERTEX_POINT('',#110);
#130=CARTESIAN_POINT('',(12.3243243243243,5.05405405405405,0.));
#140=VERTEX_POINT('',#130);
#150=EDGE_CURVE('',#120,#140,#100,.T.);
#160=ORIENTED_EDGE('',*,*,#150,.F.);
#170=CARTESIAN_POINT('',(10.6875,0.,0.));
#180=DIRECTION('',(0.,0.,-1.));
#190=DIRECTION('',(1.,0.,0.));
#200=AXIS2_PLACEMENT_3D('',#170,#180,#190);
#210=CIRCLE('',#200,5.3125);
#220=CARTESIAN_POINT('',(12.0624761771071,-5.13148095216068,0.));
#230=VERTEX_POINT('',#220);
#240=EDGE_CURVE('',#140,#230,#210,.T.);
#250=ORIENTED_EDGE('',*,*,#240,.F.);
#260=CARTESIAN_POINT('',(0.,-5.13148095216068,0.));
#270=DIRECTION('',(0.,1.,0.));
#280=DIRECTION('',(1.,0.,0.));
#290=AXIS2_PLACEMENT_3D('',#260,#270,#280);
#300=CIRCLE('',#290,12.0624761771071);
#310=CARTESIAN_POINT('',(-12.0624761771071,-5.13148095216068,0.));
#320=VERTEX_POINT('',#310);
#330=EDGE_CURVE('',#320,#230,#300,.T.);
#340=ORIENTED_EDGE('',*,*,#330,.T.);
#350=CARTESIAN_POINT('',(-10.6875,0.,0.));
#360=DIRECTION('',(0.,0.,1.));
#370=DIRECTION('',(-1.,0.,0.));
#380=AXIS2_PLACEMENT_3D('',#350,#360,#370);
#390=CIRCLE('',#380,5.3125);
#400=CARTESIAN_POINT('',(-12.3243243243243,5.05405405405405,0.));
#410=VERTEX_POINT('',#400);
#420=EDGE_CURVE('',#410,#320,#390,.T.);
#430=ORIENTED_EDGE('',*,*,#420,.T.);
#440=EDGE_CURVE('',#410,#120,#100,.T.);
#450=ORIENTED_EDGE('',*,*,#440,.F.);
#460=EDGE_LOOP('',(#450,#430,#340,#250,#160));
#470=FACE_OUTER_BOUND('',#460,.T.);
#480=ADVANCED_FACE('',(#470),#50,.T.);
#490=CARTESIAN_POINT('',(0.,-20.,-1.6));
#500=DIRECTION('',(0.,0.,1.));
#510=DIRECTION('',(1.,0.,0.));
#520=AXIS2_PLACEMENT_3D('',#490,#500,#510);
#530=PLANE('',#520);
#540=CARTESIAN_POINT('',(-1.2,-20.,-1.6));
#550=DIRECTION('',(-0.,1.,-0.));
#560=VECTOR('',#550,1.);
#570=LINE('',#540,#560);
#580=CARTESIAN_POINT('',(-1.2,-20.,-1.6));
#590=VERTEX_POINT('',#580);
#600=CARTESIAN_POINT('',(-1.2,0.,-1.6));
#610=VERTEX_POINT('',#600);
#620=EDGE_CURVE('',#590,#610,#570,.T.);
#630=ORIENTED_EDGE('',*,*,#620,.F.);
#640=CARTESIAN_POINT('',(0.,0.,-1.6));
#650=DIRECTION('',(-1.,0.,0.));
#660=VECTOR('',#650,1.);
#670=LINE('',#640,#660);
#680=CARTESIAN_POINT('',(1.2,0.,-1.6));
#690=VERTEX_POINT('',#680);
#700=EDGE_CURVE('',#690,#610,#670,.T.);
#710=ORIENTED_EDGE('',*,*,#700,.T.);
#720=CARTESIAN_POINT('',(1.2,-20.,-1.6));
#730=DIRECTION('',(0.,1.,0.));
#740=VECTOR('',#730,1.);
#750=LINE('',#720,#740);
#760=CARTESIAN_POINT('',(1.2,-20.,-1.6));
#770=VERTEX_POINT('',#760);
#780=EDGE_CURVE('',#770,#690,#750,.T.);
#790=ORIENTED_EDGE('',*,*,#780,.T.);
#800=CARTESIAN_POINT('',(0.,-20.,-1.6));
#810=DIRECTION('',(-1.,0.,0.));
#820=VECTOR('',#810,1.);
#830=LINE('',#800,#820);
#840=EDGE_CURVE('',#770,#590,#830,.T.);
#850=ORIENTED_EDGE('',*,*,#840,.F.);
#860=EDGE_LOOP('',(#850,#790,#710,#630));
#870=FACE_OUTER_BOUND('',#860,.T.);
#880=ADVANCED_FACE('',(#870),#530,.T.);
#890=CARTESIAN_POINT('',(0.,-33.,0.));
#900=DIRECTION('',(0.,1.,0.));
#910=DIRECTION('',(1.,0.,0.));
#920=AXIS2_PLACEMENT_3D('',#890,#900,#910);
#930=SPHERICAL_SURFACE('',#920,40.);
#940=CARTESIAN_POINT('',(0.,-33.,0.));
#950=DIRECTION('',(0.,0.,-1.));
#960=DIRECTION('',(1.,-0.,0.));
#970=AXIS2_PLACEMENT_3D('',#940,#950,#960);
#980=CIRCLE('',#970,40.);
#990=CARTESIAN_POINT('',(-7.34788079488412E-15,7.00000000000001,0.));
#1000=VERTEX_POINT('',#990);
#1010=EDGE_CURVE('',#410,#1000,#980,.T.);
#1020=ORIENTED_EDGE('',*,*,#1010,.F.);
#1030=EDGE_CURVE('',#1000,#140,#980,.T.);
#1040=ORIENTED_EDGE('',*,*,#1030,.F.);
#1050=ORIENTED_EDGE('',*,*,#150,.T.);
#1060=ORIENTED_EDGE('',*,*,#440,.T.);
#1070=EDGE_LOOP('',(#1060,#1050,#1040,#1020));
#1080=FACE_OUTER_BOUND('',#1070,.T.);
#1090=ADVANCED_FACE('',(#1080),#930,.T.);
#1100=CARTESIAN_POINT('',(4.5,-20.,0.));
#1110=DIRECTION('',(-0.,-1.,-0.));
#1120=DIRECTION('',(-1.,0.,0.));
#1130=AXIS2_PLACEMENT_3D('',#1100,#1110,#1120);
#1140=PLANE('',#1130);
#1150=CARTESIAN_POINT('',(0.,-20.,0.));
#1160=DIRECTION('',(0.,-1.,0.));
#1170=DIRECTION('',(0.,0.,-1.));
#1180=AXIS2_PLACEMENT_3D('',#1150,#1160,#1170);
#1190=CIRCLE('',#1180,2.);
#1200=CARTESIAN_POINT('',(-1.2,-20.,1.6));
#1210=VERTEX_POINT('',#1200);
#1220=CARTESIAN_POINT('',(-1.6,-20.,1.2));
#1230=VERTEX_POINT('',#1220);
#1240=EDGE_CURVE('',#1210,#1230,#1190,.T.);
#1250=ORIENTED_EDGE('',*,*,#1240,.F.);
#1260=CARTESIAN_POINT('',(-1.6,-20.,0.));
#1270=DIRECTION('',(-0.,0.,1.));
#1280=VECTOR('',#1270,1.);
#1290=LINE('',#1260,#1280);
#1300=CARTESIAN_POINT('',(-1.6,-20.,-1.2));
#1310=VERTEX_POINT('',#1300);
#1320=EDGE_CURVE('',#1310,#1230,#1290,.T.);
#1330=ORIENTED_EDGE('',*,*,#1320,.T.);
#1340=CARTESIAN_POINT('',(0.,-20.,0.));
#1350=DIRECTION('',(0.,-1.,0.));
#1360=DIRECTION('',(0.,0.,-1.));
#1370=AXIS2_PLACEMENT_3D('',#1340,#1350,#1360);
#1380=CIRCLE('',#1370,2.);
#1390=EDGE_CURVE('',#1310,#590,#1380,.T.);
#1400=ORIENTED_EDGE('',*,*,#1390,.F.);
#1410=ORIENTED_EDGE('',*,*,#840,.T.);
#1420=CARTESIAN_POINT('',(0.,-20.,0.));
#1430=DIRECTION('',(-0.,1.,-0.));
#1440=DIRECTION('',(0.,0.,-1.));
#1450=AXIS2_PLACEMENT_3D('',#1420,#1430,#1440);
#1460=CIRCLE('',#1450,2.);
#1470=CARTESIAN_POINT('',(1.6,-20.,-1.2));
#1480=VERTEX_POINT('',#1470);
#1490=EDGE_CURVE('',#1480,#770,#1460,.T.);
#1500=ORIENTED_EDGE('',*,*,#1490,.T.);
#1510=CARTESIAN_POINT('',(1.6,-20.,0.));
#1520=DIRECTION('',(0.,0.,1.));
#1530=VECTOR('',#1520,1.);
#1540=LINE('',#1510,#1530);
#1550=CARTESIAN_POINT('',(1.6,-20.,1.2));
#1560=VERTEX_POINT('',#1550);
#1570=EDGE_CURVE('',#1480,#1560,#1540,.T.);
#1580=ORIENTED_EDGE('',*,*,#1570,.F.);
#1590=CARTESIAN_POINT('',(0.,-20.,0.));
#1600=DIRECTION('',(-0.,1.,-0.));
#1610=DIRECTION('',(0.,0.,-1.));
#1620=AXIS2_PLACEMENT_3D('',#1590,#1600,#1610);
#1630=CIRCLE('',#1620,2.);
#1640=CARTESIAN_POINT('',(1.2,-20.,1.6));
#1650=VERTEX_POINT('',#1640);
#1660=EDGE_CURVE('',#1650,#1560,#1630,.T.);
#1670=ORIENTED_EDGE('',*,*,#1660,.T.);
#1680=CARTESIAN_POINT('',(0.,-20.,1.6));
#1690=DIRECTION('',(1.,0.,0.));
#1700=VECTOR('',#1690,1.);
#1710=LINE('',#1680,#1700);
#1720=EDGE_CURVE('',#1210,#1650,#1710,.T.);
#1730=ORIENTED_EDGE('',*,*,#1720,.T.);
#1740=EDGE_LOOP('',(#1730,#1670,#1580,#1500,#1410,#1400,#1330,#1250));
#1750=FACE_BOUND('',#1740,.T.);
#1760=CARTESIAN_POINT('',(0.,-20.,0.));
#1770=DIRECTION('',(0.,-1.,0.));
#1780=DIRECTION('',(-1.,0.,0.));
#1790=AXIS2_PLACEMENT_3D('',#1760,#1770,#1780);
#1800=CIRCLE('',#1790,9.);
#1810=CARTESIAN_POINT('',(-9.,-20.,0.));
#1820=VERTEX_POINT('',#1810);
#1830=CARTESIAN_POINT('',(9.,-20.,-1.10218211923262E-15));
#1840=VERTEX_POINT('',#1830);
#1850=EDGE_CURVE('',#1820,#1840,#1800,.T.);
#1860=ORIENTED_EDGE('',*,*,#1850,.T.);
#1870=CARTESIAN_POINT('',(1.65327317884893E-15,-20.,9.));
#1880=VERTEX_POINT('',#1870);
#1890=EDGE_CURVE('',#1880,#1820,#1800,.T.);
#1900=ORIENTED_EDGE('',*,*,#1890,.T.);
#1910=EDGE_CURVE('',#1840,#1880,#1800,.T.);
#1920=ORIENTED_EDGE('',*,*,#1910,.T.);
#1930=EDGE_LOOP('',(#1920,#1900,#1860));
#1940=FACE_OUTER_BOUND('',#1930,.T.);
#1950=ADVANCED_FACE('',(#1750,#1940),#1140,.T.);
#1960=CARTESIAN_POINT('',(0.,-8.65597372323965,0.));
#1970=DIRECTION('',(0.,1.,0.));
#1980=DIRECTION('',(1.,0.,0.));
#1990=AXIS2_PLACEMENT_3D('',#1960,#1970,#1980);
#2000=TOROIDAL_SURFACE('',#1990,10.5,3.);
#2010=CARTESIAN_POINT('',(0.,-5.75819624437245,0.));
#2020=DIRECTION('',(0.,1.,0.));
#2030=DIRECTION('',(1.,0.,0.));
#2040=AXIS2_PLACEMENT_3D('',#2010,#2020,#2030);
#2050=CIRCLE('',#2040,9.72354286469244);
#2060=CARTESIAN_POINT('',(0.,-5.75819624437245,-9.72354286469244));
#2070=VERTEX_POINT('',#2060);
#2080=CARTESIAN_POINT('',(-9.72354286469244,-5.75819624437245,0.));
#2090=VERTEX_POINT('',#2080);
#2100=EDGE_CURVE('',#2070,#2090,#2050,.T.);
#2110=ORIENTED_EDGE('',*,*,#2100,.F.);
#2120=CARTESIAN_POINT('',(-10.5,-8.65597372323965,0.));
#2130=DIRECTION('',(0.,0.,1.));
#2140=DIRECTION('',(-1.,0.,0.));
#2150=AXIS2_PLACEMENT_3D('',#2120,#2130,#2140);
#2160=CIRCLE('',#2150,3.);
#2170=CARTESIAN_POINT('',(-7.5,-8.65597372323965,0.));
#2180=VERTEX_POINT('',#2170);
#2190=EDGE_CURVE('',#2180,#2090,#2160,.T.);
#2200=ORIENTED_EDGE('',*,*,#2190,.T.);
#2210=CARTESIAN_POINT('',(0.,-8.65597372323965,0.));
#2220=DIRECTION('',(0.,1.,0.));
#2230=DIRECTION('',(1.,0.,0.));
#2240=AXIS2_PLACEMENT_3D('',#2210,#2220,#2230);
#2250=CIRCLE('',#2240,7.5);
#2260=CARTESIAN_POINT('',(0.,-8.65597372323965,-7.5));
#2270=VERTEX_POINT('',#2260);
#2280=EDGE_CURVE('',#2270,#2180,#2250,.T.);
#2290=ORIENTED_EDGE('',*,*,#2280,.T.);
#2300=CARTESIAN_POINT('',(7.5,-8.65597372323965,0.));
#2310=VERTEX_POINT('',#2300);
#2320=EDGE_CURVE('',#2310,#2270,#2250,.T.);
#2330=ORIENTED_EDGE('',*,*,#2320,.T.);
#2340=CARTESIAN_POINT('',(10.5,-8.65597372323965,0.));
#2350=DIRECTION('',(0.,0.,-1.));
#2360=DIRECTION('',(1.,0.,0.));
#2370=AXIS2_PLACEMENT_3D('',#2340,#2350,#2360);
#2380=CIRCLE('',#2370,3.);
#2390=CARTESIAN_POINT('',(9.72354286469244,-5.75819624437245,0.));
#2400=VERTEX_POINT('',#2390);
#2410=EDGE_CURVE('',#2310,#2400,#2380,.T.);
#2420=ORIENTED_EDGE('',*,*,#2410,.F.);
#2430=EDGE_CURVE('',#2400,#2070,#2050,.T.);
#2440=ORIENTED_EDGE('',*,*,#2430,.F.);
#2450=EDGE_LOOP('',(#2440,#2420,#2330,#2290,#2200,#2110));
#2460=FACE_OUTER_BOUND('',#2450,.T.);
#2470=ADVANCED_FACE('',(#2460),#2000,.F.);
#2480=CARTESIAN_POINT('',(0.,-19.,0.));
#2490=DIRECTION('',(0.,-1.,0.));
#2500=DIRECTION('',(-1.,0.,0.));
#2510=AXIS2_PLACEMENT_3D('',#2480,#2490,#2500);
#2520=CYLINDRICAL_SURFACE('',#2510,9.);
#2530=CARTESIAN_POINT('',(0.,-18.,0.));
#2540=DIRECTION('',(0.,1.,0.));
#2550=DIRECTION('',(1.,0.,0.));
#2560=AXIS2_PLACEMENT_3D('',#2530,#2540,#2550);
#2570=CIRCLE('',#2560,9.);
#2580=CARTESIAN_POINT('',(1.65327317884893E-15,-18.,9.));
#2590=VERTEX_POINT('',#2580);
#2600=CARTESIAN_POINT('',(9.,-18.,0.));
#2610=VERTEX_POINT('',#2600);
#2620=EDGE_CURVE('',#2590,#2610,#2570,.T.);
#2630=ORIENTED_EDGE('',*,*,#2620,.F.);
#2640=CARTESIAN_POINT('',(9.,-19.,-1.10218211923262E-15));
#2650=DIRECTION('',(0.,-1.,0.));
#2660=VECTOR('',#2650,1.);
#2670=LINE('',#2640,#2660);
#2680=EDGE_CURVE('',#2610,#1840,#2670,.T.);
#2690=ORIENTED_EDGE('',*,*,#2680,.F.);
#2700=ORIENTED_EDGE('',*,*,#1910,.F.);
#2710=ORIENTED_EDGE('',*,*,#1890,.F.);
#2720=CARTESIAN_POINT('',(-9.,-19.,0.));
#2730=DIRECTION('',(0.,-1.,0.));
#2740=VECTOR('',#2730,1.);
#2750=LINE('',#2720,#2740);
#2760=CARTESIAN_POINT('',(-9.,-18.,0.));
#2770=VERTEX_POINT('',#2760);
#2780=EDGE_CURVE('',#2770,#1820,#2750,.T.);
#2790=ORIENTED_EDGE('',*,*,#2780,.T.);
#2800=EDGE_CURVE('',#2770,#2590,#2570,.T.);
#2810=ORIENTED_EDGE('',*,*,#2800,.F.);
#2820=EDGE_LOOP('',(#2810,#2790,#2710,#2700,#2690,#2630));
#2830=FACE_OUTER_BOUND('',#2820,.T.);
#2840=ADVANCED_FACE('',(#2830),#2520,.T.);
#2850=CARTESIAN_POINT('',(7.75,-17.,0.));
#2860=DIRECTION('',(-0.,-1.,-0.));
#2870=DIRECTION('',(-1.,0.,0.));
#2880=AXIS2_PLACEMENT_3D('',#2850,#2860,#2870);
#2890=PLANE('',#2880);
#2900=CARTESIAN_POINT('',(0.,-17.,0.));
#2910=DIRECTION('',(0.,1.,0.));
#2920=DIRECTION('',(1.,0.,0.));
#2930=AXIS2_PLACEMENT_3D('',#2900,#2910,#2920);
#2940=CIRCLE('',#2930,8.);
#2950=CARTESIAN_POINT('',(8.,-17.,0.));
#2960=VERTEX_POINT('',#2950);
#2970=CARTESIAN_POINT('',(-8.,-17.,0.));
#2980=VERTEX_POINT('',#2970);
#2990=EDGE_CURVE('',#2960,#2980,#2940,.T.);
#3000=ORIENTED_EDGE('',*,*,#2990,.T.);
#3010=CARTESIAN_POINT('',(1.77635683940025E-15,-17.,8.));
#3020=VERTEX_POINT('',#3010);
#3030=EDGE_CURVE('',#3020,#2960,#2940,.T.);
#3040=ORIENTED_EDGE('',*,*,#3030,.T.);
#3050=EDGE_CURVE('',#2980,#3020,#2940,.T.);
#3060=ORIENTED_EDGE('',*,*,#3050,.T.);
#3070=EDGE_LOOP('',(#3060,#3040,#3000));
#3080=FACE_OUTER_BOUND('',#3070,.T.);
#3090=CARTESIAN_POINT('',(0.,-17.,0.));
#3100=DIRECTION('',(0.,1.,0.));
#3110=DIRECTION('',(1.,0.,0.));
#3120=AXIS2_PLACEMENT_3D('',#3090,#3100,#3110);
#3130=CIRCLE('',#3120,7.5);
#3140=CARTESIAN_POINT('',(2.12457708661799E-15,-17.,-7.5));
#3150=VERTEX_POINT('',#3140);
#3160=CARTESIAN_POINT('',(-7.5,-17.,-9.18485099360515E-16));
#3170=VERTEX_POINT('',#3160);
#3180=EDGE_CURVE('',#3150,#3170,#3130,.T.);
#3190=ORIENTED_EDGE('',*,*,#3180,.F.);
#3200=CARTESIAN_POINT('',(7.5,-17.,0.));
#3210=VERTEX_POINT('',#3200);
#3220=EDGE_CURVE('',#3170,#3210,#3130,.T.);
#3230=ORIENTED_EDGE('',*,*,#3220,.F.);
#3240=EDGE_CURVE('',#3210,#3150,#3130,.T.);
#3250=ORIENTED_EDGE('',*,*,#3240,.F.);
#3260=EDGE_LOOP('',(#3250,#3230,#3190));
#3270=FACE_BOUND('',#3260,.T.);
#3280=ADVANCED_FACE('',(#3080,#3270),#2890,.F.);
#3290=CARTESIAN_POINT('',(0.,-12.8279868616198,0.));
#3300=DIRECTION('',(0.,1.,0.));
#3310=DIRECTION('',(1.,0.,0.));
#3320=AXIS2_PLACEMENT_3D('',#3290,#3300,#3310);
#3330=CYLINDRICAL_SURFACE('',#3320,7.5);
#3340=CARTESIAN_POINT('',(7.5,-12.8279868616198,0.));
#3350=DIRECTION('',(0.,1.,0.));
#3360=VECTOR('',#3350,1.);
#3370=LINE('',#3340,#3360);
#3380=EDGE_CURVE('',#3210,#2310,#3370,.T.);
#3390=ORIENTED_EDGE('',*,*,#3380,.F.);
#3400=ORIENTED_EDGE('',*,*,#2320,.F.);
#3410=ORIENTED_EDGE('',*,*,#2280,.F.);
#3420=CARTESIAN_POINT('',(-7.5,-12.8279868616198,-9.18485099360515E-16))
;
#3430=DIRECTION('',(0.,1.,0.));
#3440=VECTOR('',#3430,1.);
#3450=LINE('',#3420,#3440);
#3460=EDGE_CURVE('',#3170,#2180,#3450,.T.);
#3470=ORIENTED_EDGE('',*,*,#3460,.T.);
#3480=ORIENTED_EDGE('',*,*,#3180,.T.);
#3490=ORIENTED_EDGE('',*,*,#3240,.T.);
#3500=EDGE_LOOP('',(#3490,#3480,#3470,#3410,#3400,#3390));
#3510=FACE_OUTER_BOUND('',#3500,.T.);
#3520=ADVANCED_FACE('',(#3510),#3330,.T.);
#3530=CARTESIAN_POINT('',(0.,-5.13148095216068,0.));
#3540=DIRECTION('',(0.,1.,0.));
#3550=DIRECTION('',(1.,0.,0.));
#3560=AXIS2_PLACEMENT_3D('',#3530,#3540,#3550);
#3570=CONICAL_SURFACE('',#3560,12.0624761771071,1.30899693899575);
#3580=CARTESIAN_POINT('',(0.,-5.13148095216068,-12.0624761771071));
#3590=VERTEX_POINT('',#3580);
#3600=EDGE_CURVE('',#3590,#320,#300,.T.);
#3610=ORIENTED_EDGE('',*,*,#3600,.F.);
#3620=CARTESIAN_POINT('',(-12.0624761771071,-5.13148095216068,
-1.47722728400855E-15));
#3630=DIRECTION('',(-0.965925826289069,0.25881904510252,
-1.18291797137867E-16));
#3640=VECTOR('',#3630,12.4879942629231);
#3650=LINE('',#3620,#3640);
#3660=EDGE_CURVE('',#2090,#320,#3650,.T.);
#3670=ORIENTED_EDGE('',*,*,#3660,.T.);
#3680=ORIENTED_EDGE('',*,*,#2100,.T.);
#3690=ORIENTED_EDGE('',*,*,#2430,.T.);
#3700=CARTESIAN_POINT('',(12.0624761771071,-5.13148095216068,0.));
#3710=DIRECTION('',(0.965925826289069,0.25881904510252,0.));
#3720=VECTOR('',#3710,12.4879942629231);
#3730=LINE('',#3700,#3720);
#3740=EDGE_CURVE('',#2400,#230,#3730,.T.);
#3750=ORIENTED_EDGE('',*,*,#3740,.F.);
#3760=EDGE_CURVE('',#230,#3590,#300,.T.);
#3770=ORIENTED_EDGE('',*,*,#3760,.F.);
#3780=EDGE_LOOP('',(#3770,#3750,#3690,#3680,#3670,#3610));
#3790=FACE_OUTER_BOUND('',#3780,.T.);
#3800=ADVANCED_FACE('',(#3790),#3570,.T.);
#3810=CARTESIAN_POINT('',(0.,-18.,0.));
#3820=DIRECTION('',(0.,1.,0.));
#3830=DIRECTION('',(1.,0.,0.));
#3840=AXIS2_PLACEMENT_3D('',#3810,#3820,#3830);
#3850=TOROIDAL_SURFACE('',#3840,8.,1.);
#3860=CARTESIAN_POINT('',(-8.,-18.,0.));
#3870=DIRECTION('',(0.,0.,1.));
#3880=DIRECTION('',(-1.,0.,0.));
#3890=AXIS2_PLACEMENT_3D('',#3860,#3870,#3880);
#3900=CIRCLE('',#3890,1.);
#3910=EDGE_CURVE('',#2980,#2770,#3900,.T.);
#3920=ORIENTED_EDGE('',*,*,#3910,.T.);
#3930=ORIENTED_EDGE('',*,*,#3050,.F.);
#3940=ORIENTED_EDGE('',*,*,#3030,.F.);
#3950=CARTESIAN_POINT('',(8.,-18.,0.));
#3960=DIRECTION('',(0.,0.,-1.));
#3970=DIRECTION('',(1.,0.,0.));
#3980=AXIS2_PLACEMENT_3D('',#3950,#3960,#3970);
#3990=CIRCLE('',#3980,1.);
#4000=EDGE_CURVE('',#2960,#2610,#3990,.T.);
#4010=ORIENTED_EDGE('',*,*,#4000,.F.);
#4020=ORIENTED_EDGE('',*,*,#2620,.T.);
#4030=ORIENTED_EDGE('',*,*,#2800,.T.);
#4040=EDGE_LOOP('',(#4030,#4020,#4010,#3940,#3930,#3920));
#4050=FACE_OUTER_BOUND('',#4040,.T.);
#4060=ADVANCED_FACE('',(#4050),#3850,.T.);
#4070=CARTESIAN_POINT('',(-1.2,-20.,1.6));
#4080=DIRECTION('',(0.,0.,-1.));
#4090=DIRECTION('',(-1.,-0.,0.));
#4100=AXIS2_PLACEMENT_3D('',#4070,#4080,#4090);
#4110=PLANE('',#4100);
#4120=CARTESIAN_POINT('',(1.2,-20.,1.6));
#4130=DIRECTION('',(0.,1.,0.));
#4140=VECTOR('',#4130,1.);
#4150=LINE('',#4120,#4140);
#4160=CARTESIAN_POINT('',(1.2,0.,1.6));
#4170=VERTEX_POINT('',#4160);
#4180=EDGE_CURVE('',#1650,#4170,#4150,.T.);
#4190=ORIENTED_EDGE('',*,*,#4180,.F.);
#4200=CARTESIAN_POINT('',(0.,0.,1.6));
#4210=DIRECTION('',(1.,0.,0.));
#4220=VECTOR('',#4210,1.);
#4230=LINE('',#4200,#4220);
#4240=CARTESIAN_POINT('',(-1.2,0.,1.6));
#4250=VERTEX_POINT('',#4240);
#4260=EDGE_CURVE('',#4250,#4170,#4230,.T.);
#4270=ORIENTED_EDGE('',*,*,#4260,.T.);
#4280=CARTESIAN_POINT('',(-1.2,-20.,1.6));
#4290=DIRECTION('',(-0.,1.,-0.));
#4300=VECTOR('',#4290,1.);
#4310=LINE('',#4280,#4300);
#4320=EDGE_CURVE('',#1210,#4250,#4310,.T.);
#4330=ORIENTED_EDGE('',*,*,#4320,.T.);
#4340=ORIENTED_EDGE('',*,*,#1720,.F.);
#4350=EDGE_LOOP('',(#4340,#4330,#4270,#4190));
#4360=FACE_OUTER_BOUND('',#4350,.T.);
#4370=ADVANCED_FACE('',(#4360),#4110,.T.);
#4380=CARTESIAN_POINT('',(15.25,0.,0.));
#4390=DIRECTION('',(-0.,1.,0.));
#4400=DIRECTION('',(1.,0.,0.));
#4410=AXIS2_PLACEMENT_3D('',#4380,#4390,#4400);
#4420=PLANE('',#4410);
#4430=CARTESIAN_POINT('',(-0.,0.,0.));
#4440=DIRECTION('',(-0.,1.,-0.));
#4450=DIRECTION('',(0.,0.,-1.));
#4460=AXIS2_PLACEMENT_3D('',#4430,#4440,#4450);
#4470=CIRCLE('',#4460,2.);
#4480=CARTESIAN_POINT('',(1.6,0.,1.2));
#4490=VERTEX_POINT('',#4480);
#4500=EDGE_CURVE('',#4170,#4490,#4470,.T.);
#4510=ORIENTED_EDGE('',*,*,#4500,.F.);
#4520=CARTESIAN_POINT('',(1.6,0.,0.));
#4530=DIRECTION('',(0.,-0.,1.));
#4540=VECTOR('',#4530,1.);
#4550=LINE('',#4520,#4540);
#4560=CARTESIAN_POINT('',(1.6,0.,-1.2));
#4570=VERTEX_POINT('',#4560);
#4580=EDGE_CURVE('',#4570,#4490,#4550,.T.);
#4590=ORIENTED_EDGE('',*,*,#4580,.T.);
#4600=CARTESIAN_POINT('',(-0.,0.,0.));
#4610=DIRECTION('',(-0.,1.,-0.));
#4620=DIRECTION('',(0.,0.,-1.));
#4630=AXIS2_PLACEMENT_3D('',#4600,#4610,#4620);
#4640=CIRCLE('',#4630,2.);
#4650=EDGE_CURVE('',#4570,#690,#4640,.T.);
#4660=ORIENTED_EDGE('',*,*,#4650,.F.);
#4670=ORIENTED_EDGE('',*,*,#700,.F.);
#4680=CARTESIAN_POINT('',(0.,0.,0.));
#4690=DIRECTION('',(0.,-1.,0.));
#4700=DIRECTION('',(0.,0.,-1.));
#4710=AXIS2_PLACEMENT_3D('',#4680,#4690,#4700);
#4720=CIRCLE('',#4710,2.);
#4730=CARTESIAN_POINT('',(-1.6,0.,-1.2));
#4740=VERTEX_POINT('',#4730);
#4750=EDGE_CURVE('',#4740,#610,#4720,.T.);
#4760=ORIENTED_EDGE('',*,*,#4750,.T.);
#4770=CARTESIAN_POINT('',(-1.6,0.,0.));
#4780=DIRECTION('',(0.,-0.,1.));
#4790=VECTOR('',#4780,1.);
#4800=LINE('',#4770,#4790);
#4810=CARTESIAN_POINT('',(-1.6,0.,1.2));
#4820=VERTEX_POINT('',#4810);
#4830=EDGE_CURVE('',#4740,#4820,#4800,.T.);
#4840=ORIENTED_EDGE('',*,*,#4830,.F.);
#4850=CARTESIAN_POINT('',(0.,0.,0.));
#4860=DIRECTION('',(0.,-1.,0.));
#4870=DIRECTION('',(0.,0.,-1.));
#4880=AXIS2_PLACEMENT_3D('',#4850,#4860,#4870);
#4890=CIRCLE('',#4880,2.);
#4900=EDGE_CURVE('',#4250,#4820,#4890,.T.);
#4910=ORIENTED_EDGE('',*,*,#4900,.T.);
#4920=ORIENTED_EDGE('',*,*,#4260,.F.);
#4930=EDGE_LOOP('',(#4920,#4910,#4840,#4760,#4670,#4660,#4590,#4510));
#4940=FACE_OUTER_BOUND('',#4930,.T.);
#4950=ADVANCED_FACE('',(#4940),#4420,.F.);
#4960=CARTESIAN_POINT('',(0.,-20.,0.));
#4970=DIRECTION('',(0.,-1.,0.));
#4980=DIRECTION('',(0.,0.,-1.));
#4990=AXIS2_PLACEMENT_3D('',#4960,#4970,#4980);
#5000=CYLINDRICAL_SURFACE('',#4990,2.);
#5010=ORIENTED_EDGE('',*,*,#4320,.F.);
#5020=ORIENTED_EDGE('',*,*,#4900,.F.);
#5030=CARTESIAN_POINT('',(-1.6,-20.,1.2));
#5040=DIRECTION('',(-0.,1.,-0.));
#5050=VECTOR('',#5040,1.);
#5060=LINE('',#5030,#5050);
#5070=EDGE_CURVE('',#1230,#4820,#5060,.T.);
#5080=ORIENTED_EDGE('',*,*,#5070,.T.);
#5090=ORIENTED_EDGE('',*,*,#1240,.T.);
#5100=EDGE_LOOP('',(#5090,#5080,#5020,#5010));
#5110=FACE_OUTER_BOUND('',#5100,.T.);
#5120=ADVANCED_FACE('',(#5110),#5000,.F.);
#5130=CARTESIAN_POINT('',(-1.6,-20.,-1.2));
#5140=DIRECTION('',(1.,-0.,0.));
#5150=DIRECTION('',(0.,0.,-1.));
#5160=AXIS2_PLACEMENT_3D('',#5130,#5140,#5150);
#5170=PLANE('',#5160);
#5180=ORIENTED_EDGE('',*,*,#5070,.F.);
#5190=ORIENTED_EDGE('',*,*,#4830,.T.);
#5200=CARTESIAN_POINT('',(-1.6,-20.,-1.2));
#5210=DIRECTION('',(-0.,1.,-0.));
#5220=VECTOR('',#5210,1.);
#5230=LINE('',#5200,#5220);
#5240=EDGE_CURVE('',#1310,#4740,#5230,.T.);
#5250=ORIENTED_EDGE('',*,*,#5240,.T.);
#5260=ORIENTED_EDGE('',*,*,#1320,.F.);
#5270=EDGE_LOOP('',(#5260,#5250,#5190,#5180));
#5280=FACE_OUTER_BOUND('',#5270,.T.);
#5290=ADVANCED_FACE('',(#5280),#5170,.T.);
#5300=CARTESIAN_POINT('',(0.,-20.,0.));
#5310=DIRECTION('',(0.,-1.,0.));
#5320=DIRECTION('',(0.,0.,-1.));
#5330=AXIS2_PLACEMENT_3D('',#5300,#5310,#5320);
#5340=CYLINDRICAL_SURFACE('',#5330,2.);
#5350=ORIENTED_EDGE('',*,*,#5240,.F.);
#5360=ORIENTED_EDGE('',*,*,#4750,.F.);
#5370=ORIENTED_EDGE('',*,*,#620,.T.);
#5380=ORIENTED_EDGE('',*,*,#1390,.T.);
#5390=EDGE_LOOP('',(#5380,#5370,#5360,#5350));
#5400=FACE_OUTER_BOUND('',#5390,.T.);
#5410=ADVANCED_FACE('',(#5400),#5340,.F.);
#5420=CARTESIAN_POINT('',(0.,-20.,0.));
#5430=DIRECTION('',(0.,-1.,0.));
#5440=DIRECTION('',(0.,0.,-1.));
#5450=AXIS2_PLACEMENT_3D('',#5420,#5430,#5440);
#5460=CYLINDRICAL_SURFACE('',#5450,2.);
#5470=ORIENTED_EDGE('',*,*,#1660,.F.);
#5480=CARTESIAN_POINT('',(1.6,-20.,1.2));
#5490=DIRECTION('',(0.,1.,0.));
#5500=VECTOR('',#5490,1.);
#5510=LINE('',#5480,#5500);
#5520=EDGE_CURVE('',#1560,#4490,#5510,.T.);
#5530=ORIENTED_EDGE('',*,*,#5520,.F.);
#5540=ORIENTED_EDGE('',*,*,#4500,.T.);
#5550=ORIENTED_EDGE('',*,*,#4180,.T.);
#5560=EDGE_LOOP('',(#5550,#5540,#5530,#5470));
#5570=FACE_OUTER_BOUND('',#5560,.T.);
#5580=ADVANCED_FACE('',(#5570),#5460,.F.);
#5590=CARTESIAN_POINT('',(1.6,-20.,-1.2));
#5600=DIRECTION('',(1.,0.,0.));
#5610=DIRECTION('',(0.,0.,-1.));
#5620=AXIS2_PLACEMENT_3D('',#5590,#5600,#5610);
#5630=PLANE('',#5620);
#5640=ORIENTED_EDGE('',*,*,#1570,.T.);
#5650=CARTESIAN_POINT('',(1.6,-20.,-1.2));
#5660=DIRECTION('',(0.,1.,0.));
#5670=VECTOR('',#5660,1.);
#5680=LINE('',#5650,#5670);
#5690=EDGE_CURVE('',#1480,#4570,#5680,.T.);
#5700=ORIENTED_EDGE('',*,*,#5690,.F.);
#5710=ORIENTED_EDGE('',*,*,#4580,.F.);
#5720=ORIENTED_EDGE('',*,*,#5520,.T.);
#5730=EDGE_LOOP('',(#5720,#5710,#5700,#5640));
#5740=FACE_OUTER_BOUND('',#5730,.T.);
#5750=ADVANCED_FACE('',(#5740),#5630,.F.);
#5760=CARTESIAN_POINT('',(0.,-20.,0.));
#5770=DIRECTION('',(0.,-1.,0.));
#5780=DIRECTION('',(0.,0.,-1.));
#5790=AXIS2_PLACEMENT_3D('',#5760,#5770,#5780);
#5800=CYLINDRICAL_SURFACE('',#5790,2.);
#5810=ORIENTED_EDGE('',*,*,#1490,.F.);
#5820=ORIENTED_EDGE('',*,*,#780,.F.);
#5830=ORIENTED_EDGE('',*,*,#4650,.T.);
#5840=ORIENTED_EDGE('',*,*,#5690,.T.);
#5850=EDGE_LOOP('',(#5840,#5830,#5820,#5810));
#5860=FACE_OUTER_BOUND('',#5850,.T.);
#5870=ADVANCED_FACE('',(#5860),#5800,.F.);
#5880=CARTESIAN_POINT('',(0.,-12.8279868616198,0.));
#5890=DIRECTION('',(0.,1.,0.));
#5900=DIRECTION('',(1.,0.,0.));
#5910=AXIS2_PLACEMENT_3D('',#5880,#5890,#5900);
#5920=CYLINDRICAL_SURFACE('',#5910,7.5);
#5930=ORIENTED_EDGE('',*,*,#3220,.T.);
#5940=ORIENTED_EDGE('',*,*,#3460,.F.);
#5950=EDGE_CURVE('',#2180,#2310,#2250,.T.);
#5960=ORIENTED_EDGE('',*,*,#5950,.F.);
#5970=ORIENTED_EDGE('',*,*,#3380,.T.);
#5980=EDGE_LOOP('',(#5970,#5960,#5940,#5930));
#5990=FACE_OUTER_BOUND('',#5980,.T.);
#6000=ADVANCED_FACE('',(#5990),#5920,.T.);
#6010=CARTESIAN_POINT('',(0.,-5.13148095216068,0.));
#6020=DIRECTION('',(0.,1.,0.));
#6030=DIRECTION('',(1.,0.,0.));
#6040=AXIS2_PLACEMENT_3D('',#6010,#6020,#6030);
#6050=CONICAL_SURFACE('',#6040,12.0624761771071,1.30899693899575);
#6060=EDGE_CURVE('',#2090,#2400,#2050,.T.);
#6070=ORIENTED_EDGE('',*,*,#6060,.T.);
#6080=ORIENTED_EDGE('',*,*,#3660,.F.);
#6090=ORIENTED_EDGE('',*,*,#330,.F.);
#6100=ORIENTED_EDGE('',*,*,#3740,.T.);
#6110=EDGE_LOOP('',(#6100,#6090,#6080,#6070));
#6120=FACE_OUTER_BOUND('',#6110,.T.);
#6130=ADVANCED_FACE('',(#6120),#6050,.T.);
#6140=CARTESIAN_POINT('',(0.,-19.,0.));
#6150=DIRECTION('',(0.,-1.,0.));
#6160=DIRECTION('',(-1.,0.,0.));
#6170=AXIS2_PLACEMENT_3D('',#6140,#6150,#6160);
#6180=CYLINDRICAL_SURFACE('',#6170,9.);
#6190=ORIENTED_EDGE('',*,*,#1850,.F.);
#6200=ORIENTED_EDGE('',*,*,#2680,.T.);
#6210=EDGE_CURVE('',#2610,#2770,#2570,.T.);
#6220=ORIENTED_EDGE('',*,*,#6210,.F.);
#6230=ORIENTED_EDGE('',*,*,#2780,.F.);
#6240=EDGE_LOOP('',(#6230,#6220,#6200,#6190));
#6250=FACE_OUTER_BOUND('',#6240,.T.);
#6260=ADVANCED_FACE('',(#6250),#6180,.T.);
#6270=CARTESIAN_POINT('',(0.,-18.,0.));
#6280=DIRECTION('',(0.,1.,0.));
#6290=DIRECTION('',(1.,0.,0.));
#6300=AXIS2_PLACEMENT_3D('',#6270,#6280,#6290);
#6310=TOROIDAL_SURFACE('',#6300,8.,1.);
#6320=ORIENTED_EDGE('',*,*,#2990,.F.);
#6330=ORIENTED_EDGE('',*,*,#3910,.F.);
#6340=ORIENTED_EDGE('',*,*,#6210,.T.);
#6350=ORIENTED_EDGE('',*,*,#4000,.T.);
#6360=EDGE_LOOP('',(#6350,#6340,#6330,#6320));
#6370=FACE_OUTER_BOUND('',#6360,.T.);
#6380=ADVANCED_FACE('',(#6370),#6310,.T.);
#6390=CARTESIAN_POINT('',(0.,-8.65597372323965,0.));
#6400=DIRECTION('',(0.,1.,0.));
#6410=DIRECTION('',(1.,0.,0.));
#6420=AXIS2_PLACEMENT_3D('',#6390,#6400,#6410);
#6430=TOROIDAL_SURFACE('',#6420,10.5,3.);
#6440=ORIENTED_EDGE('',*,*,#5950,.T.);
#6450=ORIENTED_EDGE('',*,*,#2190,.F.);
#6460=ORIENTED_EDGE('',*,*,#6060,.F.);
#6470=ORIENTED_EDGE('',*,*,#2410,.T.);
#6480=EDGE_LOOP('',(#6470,#6460,#6450,#6440));
#6490=FACE_OUTER_BOUND('',#6480,.T.);
#6500=ADVANCED_FACE('',(#6490),#6430,.F.);
#6510=CARTESIAN_POINT('',(0.,-33.,0.));
#6520=DIRECTION('',(0.,1.,0.));
#6530=DIRECTION('',(1.,0.,0.));
#6540=AXIS2_PLACEMENT_3D('',#6510,#6520,#6530);
#6550=SPHERICAL_SURFACE('',#6540,40.);
#6560=EDGE_CURVE('',#140,#410,#100,.T.);
#6570=ORIENTED_EDGE('',*,*,#6560,.T.);
#6580=ORIENTED_EDGE('',*,*,#1030,.T.);
#6590=ORIENTED_EDGE('',*,*,#1010,.T.);
#6600=EDGE_LOOP('',(#6590,#6580,#6570));
#6610=FACE_OUTER_BOUND('',#6600,.T.);
#6620=ADVANCED_FACE('',(#6610),#6550,.T.);
#6630=CARTESIAN_POINT('',(0.,0.,0.));
#6640=DIRECTION('',(0.,1.,0.));
#6650=DIRECTION('',(1.,0.,0.));
#6660=AXIS2_PLACEMENT_3D('',#6630,#6640,#6650);
#6670=TOROIDAL_SURFACE('',#6660,10.6875,5.3125);
#6680=ORIENTED_EDGE('',*,*,#240,.T.);
#6690=ORIENTED_EDGE('',*,*,#6560,.F.);
#6700=ORIENTED_EDGE('',*,*,#420,.F.);
#6710=ORIENTED_EDGE('',*,*,#3600,.T.);
#6720=ORIENTED_EDGE('',*,*,#3760,.T.);
#6730=EDGE_LOOP('',(#6720,#6710,#6700,#6690,#6680));
#6740=FACE_OUTER_BOUND('',#6730,.T.);
#6750=ADVANCED_FACE('',(#6740),#6670,.T.);
#6760=CLOSED_SHELL('',(#480,#880,#1090,#1950,#2470,#2840,#3280,#3520,
#3800,#4060,#4370,#4950,#5120,#5290,#5410,#5580,#5750,#5870,#6000,#6130,
#6260,#6380,#6500,#6620,#6750));
#6770=MANIFOLD_SOLID_BREP('',#6760);
#6780=CARTESIAN_POINT('',(0.,0.,0.));
#6790=DIRECTION('',(0.,0.,1.));
#6800=DIRECTION('',(1.,0.,0.));
#6810=AXIS2_PLACEMENT_3D('',#6780,#6790,#6800);
#6820=APPLICATION_CONTEXT(' ');
#6830=APPLICATION_PROTOCOL_DEFINITION(' ','automotive_design',1998,#6820
);
#6840=PRODUCT_CONTEXT('',#6820,'mechanical');
#6850=PRODUCT_DEFINITION_CONTEXT('part definition',#6820,'design');
#6860=PRODUCT('0385-32','0385-32','',(#6840));
#6870=PRODUCT_RELATED_PRODUCT_CATEGORY('part',' ',(#6860));
#6880=PRODUCT_DEFINITION_FORMATION_WITH_SPECIFIED_SOURCE('','',#6860,
.BOUGHT.);
#6890=PRODUCT_DEFINITION('',' ',#6880,#6850);
#6900=PRODUCT_DEFINITION_SHAPE('','',#6890);
#6910=DIMENSIONAL_EXPONENTS(1.,0.,0.,0.,0.,0.,0.);
#6920=DIMENSIONAL_EXPONENTS(0.,0.,0.,0.,0.,0.,0.);
#6930=DIMENSIONAL_EXPONENTS(0.,0.,0.,0.,0.,0.,0.);
#6940=(LENGTH_UNIT() NAMED_UNIT(*) SI_UNIT(.MILLI.,.METRE.));
#6950=(NAMED_UNIT(*) PLANE_ANGLE_UNIT() SI_UNIT($,.RADIAN.));
#6960=(NAMED_UNIT(*) SI_UNIT($,.STERADIAN.) SOLID_ANGLE_UNIT());
#6970=(GEOMETRIC_REPRESENTATION_CONTEXT(3) 
GLOBAL_UNCERTAINTY_ASSIGNED_CONTEXT((#6980)) 
GLOBAL_UNIT_ASSIGNED_CONTEXT((#6940,#6950,#6960)) REPRESENTATION_CONTEXT
('',''));
#6980=UNCERTAINTY_MEASURE_WITH_UNIT(LENGTH_MEASURE(1.E-6),#6940,
'distance_accuracy_value','maximum gap value');
#6990=ADVANCED_BREP_SHAPE_REPRESENTATION('',(#6810,#6770),#6970);
#7000=SHAPE_DEFINITION_REPRESENTATION(#6900,#6990);
#7010=COLOUR_RGB('',0.600000023841858,0.600000023841858,
0.600000023841858);
#7020=FILL_AREA_STYLE_COLOUR('',#7010);
#7030=FILL_AREA_STYLE('',(#7020));
#7040=SURFACE_STYLE_FILL_AREA(#7030);
#7050=SURFACE_SIDE_STYLE('',(#7040));
#7060=SURFACE_STYLE_USAGE(.BOTH.,#7050);
#7070=PRESENTATION_STYLE_ASSIGNMENT((#7060));
#7080=STYLED_ITEM('',(#7070),#6770);
#7090=DRAUGHTING_MODEL('',(#7080),#6970);
ENDSEC;
END-ISO-10303-21;
