ISO-10303-21;
HEADER;
FILE_DESCRIPTION(('Creo Elements/Direct Modeling STEP Export'),'2;1');
FILE_NAME('2235F.stp','2021-01-05T10:41:36',(''),(''),
'Creo Elements/Direct Modeling STEP processor for AP214 (Solid Model)',
'Creo Elements/Direct Modeling 20.0  12-Nov-2016 (C) Parametric Technolo
gy GmbH','');
FILE_SCHEMA(('AUTOMOTIVE_DESIGN { 1 0 10303 214 1 1 1 1 }'));
ENDSEC;
DATA;
#10=CARTESIAN_POINT('',(0.,0.,60.));
#20=DIRECTION('',(0.,0.,1.));
#30=DIRECTION('',(1.,0.,0.));
#40=AXIS2_PLACEMENT_3D('',#10,#20,#30);
#50=PLANE('',#40);
#60=CARTESIAN_POINT('',(0.,0.,60.));
#70=DIRECTION('',(0.,0.,1.));
#80=DIRECTION('',(1.,0.,0.));
#90=AXIS2_PLACEMENT_3D('',#60,#70,#80);
#100=CIRCLE('',#90,4.5);
#110=CARTESIAN_POINT('',(4.5,5.51091059616309E-16,60.));
#120=VERTEX_POINT('',#110);
#130=CARTESIAN_POINT('',(-4.5,0.,60.));
#140=VERTEX_POINT('',#130);
#150=EDGE_CURVE('',#120,#140,#100,.T.);
#160=ORIENTED_EDGE('',*,*,#150,.T.);
#170=EDGE_CURVE('',#140,#120,#100,.T.);
#180=ORIENTED_EDGE('',*,*,#170,.T.);
#190=EDGE_LOOP('',(#180,#160));
#200=FACE_OUTER_BOUND('',#190,.T.);
#210=ADVANCED_FACE('',(#200),#50,.T.);
#220=CARTESIAN_POINT('',(0.,0.,60.));
#230=DIRECTION('',(0.,0.,-1.));
#240=DIRECTION('',(-1.,0.,0.));
#250=AXIS2_PLACEMENT_3D('',#220,#230,#240);
#260=CONICAL_SURFACE('',#250,4.5,0.785398163397448);
#270=CARTESIAN_POINT('',(4.5,5.51091059616309E-16,60.));
#280=DIRECTION('',(0.707106781186548,8.65956056235493E-17,
-0.707106781186548));
#290=VECTOR('',#280,6.36396103067893);
#300=LINE('',#270,#290);
#310=CARTESIAN_POINT('',(5.,6.12323399573677E-16,59.5));
#320=VERTEX_POINT('',#310);
#330=EDGE_CURVE('',#120,#320,#300,.T.);
#340=ORIENTED_EDGE('',*,*,#330,.F.);
#350=CARTESIAN_POINT('',(0.,0.,59.5));
#360=DIRECTION('',(0.,0.,1.));
#370=DIRECTION('',(1.,0.,0.));
#380=AXIS2_PLACEMENT_3D('',#350,#360,#370);
#390=CIRCLE('',#380,5.);
#400=CARTESIAN_POINT('',(-5.,0.,59.5));
#410=VERTEX_POINT('',#400);
#420=EDGE_CURVE('',#410,#320,#390,.T.);
#430=ORIENTED_EDGE('',*,*,#420,.T.);
#440=CARTESIAN_POINT('',(-4.5,0.,60.));
#450=DIRECTION('',(-0.707106781186548,0.,-0.707106781186548));
#460=VECTOR('',#450,6.36396103067893);
#470=LINE('',#440,#460);
#480=EDGE_CURVE('',#140,#410,#470,.T.);
#490=ORIENTED_EDGE('',*,*,#480,.T.);
#500=ORIENTED_EDGE('',*,*,#170,.F.);
#510=EDGE_LOOP('',(#500,#490,#430,#340));
#520=FACE_OUTER_BOUND('',#510,.T.);
#530=ADVANCED_FACE('',(#520),#260,.T.);
#540=CARTESIAN_POINT('',(0.,0.,60.));
#550=DIRECTION('',(0.,0.,-1.));
#560=DIRECTION('',(-1.,0.,0.));
#570=AXIS2_PLACEMENT_3D('',#540,#550,#560);
#580=CONICAL_SURFACE('',#570,4.5,0.785398163397448);
#590=EDGE_CURVE('',#320,#410,#390,.T.);
#600=ORIENTED_EDGE('',*,*,#590,.T.);
#610=ORIENTED_EDGE('',*,*,#330,.T.);
#620=ORIENTED_EDGE('',*,*,#150,.F.);
#630=ORIENTED_EDGE('',*,*,#480,.F.);
#640=EDGE_LOOP('',(#630,#620,#610,#600));
#650=FACE_OUTER_BOUND('',#640,.T.);
#660=ADVANCED_FACE('',(#650),#580,.T.);
#670=CARTESIAN_POINT('',(0.,0.,0.));
#680=DIRECTION('',(0.,0.,1.));
#690=DIRECTION('',(1.,0.,0.));
#700=AXIS2_PLACEMENT_3D('',#670,#680,#690);
#710=CYLINDRICAL_SURFACE('',#700,5.);
#720=CARTESIAN_POINT('',(5.,0.,0.));
#730=DIRECTION('',(0.,0.,1.));
#740=VECTOR('',#730,1.);
#750=LINE('',#720,#740);
#760=CARTESIAN_POINT('',(5.,0.,1.33974596215561));
#770=VERTEX_POINT('',#760);
#780=EDGE_CURVE('',#770,#320,#750,.T.);
#790=ORIENTED_EDGE('',*,*,#780,.T.);
#800=CARTESIAN_POINT('',(0.,0.,1.33974596215561));
#810=DIRECTION('',(0.,-0.258819045102521,0.965925826289068));
#820=DIRECTION('',(0.,-0.965925826289068,-0.258819045102521));
#830=AXIS2_PLACEMENT_3D('',#800,#810,#820);
#840=ELLIPSE('',#830,5.17638090205041,5.);
#850=CARTESIAN_POINT('',(-9.18485099360515E-16,-5.,0.));
#860=VERTEX_POINT('',#850);
#870=EDGE_CURVE('',#860,#770,#840,.T.);
#880=ORIENTED_EDGE('',*,*,#870,.T.);
#890=CARTESIAN_POINT('',(-5.,6.12323399573677E-16,1.33974596215561));
#900=VERTEX_POINT('',#890);
#910=EDGE_CURVE('',#900,#860,#840,.T.);
#920=ORIENTED_EDGE('',*,*,#910,.T.);
#930=CARTESIAN_POINT('',(-5.,6.12323399573677E-16,0.));
#940=DIRECTION('',(0.,0.,1.));
#950=VECTOR('',#940,1.);
#960=LINE('',#930,#950);
#970=EDGE_CURVE('',#900,#410,#960,.T.);
#980=ORIENTED_EDGE('',*,*,#970,.F.);
#990=ORIENTED_EDGE('',*,*,#420,.F.);
#1000=EDGE_LOOP('',(#990,#980,#920,#880,#790));
#1010=FACE_OUTER_BOUND('',#1000,.T.);
#1020=ADVANCED_FACE('',(#1010),#710,.T.);
#1030=CARTESIAN_POINT('',(6.0000024,8.369866138525,3.58244483472999));
#1040=DIRECTION('',(0.,-0.258819045102521,0.965925826289068));
#1050=DIRECTION('',(0.,-0.965925826289068,-0.258819045102521));
#1060=AXIS2_PLACEMENT_3D('',#1030,#1040,#1050);
#1070=PLANE('',#1060);
#1080=CARTESIAN_POINT('',(-1.27675647831893E-15,1.13629669484372,
1.64421574390114));
#1090=DIRECTION('',(0.,0.258819045102521,-0.965925826289068));
#1100=DIRECTION('',(1.,0.,0.));
#1110=AXIS2_PLACEMENT_3D('',#1080,#1090,#1100);
#1120=CIRCLE('',#1110,1.65);
#1130=CARTESIAN_POINT('',(1.65,1.13629669484372,1.64421574390114));
#1140=VERTEX_POINT('',#1130);
#1150=CARTESIAN_POINT('',(-1.65,1.13629669484372,1.64421574390114));
#1160=VERTEX_POINT('',#1150);
#1170=EDGE_CURVE('',#1140,#1160,#1120,.T.);
#1180=ORIENTED_EDGE('',*,*,#1170,.F.);
#1190=EDGE_CURVE('',#1160,#1140,#1120,.T.);
#1200=ORIENTED_EDGE('',*,*,#1190,.F.);
#1210=EDGE_LOOP('',(#1200,#1180));
#1220=FACE_BOUND('',#1210,.T.);
#1230=ORIENTED_EDGE('',*,*,#870,.F.);
#1240=EDGE_CURVE('',#770,#900,#840,.T.);
#1250=ORIENTED_EDGE('',*,*,#1240,.F.);
#1260=ORIENTED_EDGE('',*,*,#910,.F.);
#1270=EDGE_LOOP('',(#1260,#1250,#1230));
#1280=FACE_OUTER_BOUND('',#1270,.T.);
#1290=ADVANCED_FACE('',(#1220,#1280),#1070,.F.);
#1300=CARTESIAN_POINT('',(-1.27675647831893E-15,0.2304300369849,
5.02495613591288));
#1310=DIRECTION('',(0.,0.258819045102521,-0.965925826289069));
#1320=DIRECTION('',(1.,0.,0.));
#1330=AXIS2_PLACEMENT_3D('',#1300,#1310,#1320);
#1340=CYLINDRICAL_SURFACE('',#1330,1.65);
#1350=CARTESIAN_POINT('',(-1.65,0.2304300369849,5.02495613591288));
#1360=DIRECTION('',(0.,0.258819045102521,-0.965925826289068));
#1370=VECTOR('',#1360,1.);
#1380=LINE('',#1350,#1370);
#1390=CARTESIAN_POINT('',(-1.65,-1.45189375618149,11.3034740067918));
#1400=VERTEX_POINT('',#1390);
#1410=EDGE_CURVE('',#1400,#1160,#1380,.T.);
#1420=ORIENTED_EDGE('',*,*,#1410,.T.);
#1430=CARTESIAN_POINT('',(-1.27675647831893E-15,-1.45189375618149,
11.3034740067918));
#1440=DIRECTION('',(0.,-0.258819045102521,0.965925826289069));
#1450=DIRECTION('',(1.,-2.04172226208012E-31,7.61981121702748E-31));
#1460=AXIS2_PLACEMENT_3D('',#1430,#1440,#1450);
#1470=CIRCLE('',#1460,1.65);
#1480=CARTESIAN_POINT('',(1.65,-1.45189375618149,11.3034740067918));
#1490=VERTEX_POINT('',#1480);
#1500=EDGE_CURVE('',#1490,#1400,#1470,.T.);
#1510=ORIENTED_EDGE('',*,*,#1500,.T.);
#1520=CARTESIAN_POINT('',(1.65,0.2304300369849,5.02495613591288));
#1530=DIRECTION('',(0.,0.258819045102521,-0.965925826289068));
#1540=VECTOR('',#1530,1.);
#1550=LINE('',#1520,#1540);
#1560=EDGE_CURVE('',#1490,#1140,#1550,.T.);
#1570=ORIENTED_EDGE('',*,*,#1560,.F.);
#1580=ORIENTED_EDGE('',*,*,#1190,.T.);
#1590=EDGE_LOOP('',(#1580,#1570,#1510,#1420));
#1600=FACE_OUTER_BOUND('',#1590,.T.);
#1610=ADVANCED_FACE('M4-0.7_172442',(#1600),#1340,.F.);
#1620=COLOUR_RGB('',1.,0.,0.);
#1630=FILL_AREA_STYLE_COLOUR('',#1620);
#1640=FILL_AREA_STYLE('',(#1630));
#1650=SURFACE_STYLE_FILL_AREA(#1640);
#1660=SURFACE_SIDE_STYLE('',(#1650));
#1670=SURFACE_STYLE_USAGE(.BOTH.,#1660);
#1680=PRESENTATION_STYLE_ASSIGNMENT((#1670));
#1690=CARTESIAN_POINT('',(1.6425,-1.45189375618149,11.3034740067918));
#1700=DIRECTION('',(0.,0.258819045102521,-0.965925826289068));
#1710=DIRECTION('',(1.,0.,0.));
#1720=AXIS2_PLACEMENT_3D('',#1690,#1700,#1710);
#1730=PLANE('',#1720);
#1740=CARTESIAN_POINT('',(-1.27675647831893E-15,-1.45189375618149,
11.3034740067918));
#1750=DIRECTION('',(0.,-0.258819045102521,0.965925826289069));
#1760=DIRECTION('',(1.,-2.04172226208012E-31,7.61981121702748E-31));
#1770=AXIS2_PLACEMENT_3D('',#1740,#1750,#1760);
#1780=CIRCLE('',#1770,1.635);
#1790=CARTESIAN_POINT('',(1.635,-1.45189375618149,11.3034740067918));
#1800=VERTEX_POINT('',#1790);
#1810=CARTESIAN_POINT('',(-1.635,-1.45189375618149,11.3034740067918));
#1820=VERTEX_POINT('',#1810);
#1830=EDGE_CURVE('',#1800,#1820,#1780,.T.);
#1840=ORIENTED_EDGE('',*,*,#1830,.T.);
#1850=EDGE_CURVE('',#1820,#1800,#1780,.T.);
#1860=ORIENTED_EDGE('',*,*,#1850,.T.);
#1870=EDGE_LOOP('',(#1860,#1840));
#1880=FACE_BOUND('',#1870,.T.);
#1890=ORIENTED_EDGE('',*,*,#1500,.F.);
#1900=EDGE_CURVE('',#1400,#1490,#1470,.T.);
#1910=ORIENTED_EDGE('',*,*,#1900,.F.);
#1920=EDGE_LOOP('',(#1910,#1890));
#1930=FACE_OUTER_BOUND('',#1920,.T.);
#1940=ADVANCED_FACE('',(#1880,#1930),#1730,.T.);
#1950=CARTESIAN_POINT('',(-1.27675647831893E-15,-1.0636651885277,
9.85458526735823));
#1960=DIRECTION('',(0.,0.258819045102521,-0.965925826289069));
#1970=DIRECTION('',(1.,0.,0.));
#1980=AXIS2_PLACEMENT_3D('',#1950,#1960,#1970);
#1990=CYLINDRICAL_SURFACE('',#1980,1.635);
#2000=CARTESIAN_POINT('',(1.635,-1.0636651885277,9.85458526735823));
#2010=DIRECTION('',(0.,0.258819045102521,-0.965925826289068));
#2020=VECTOR('',#2010,1.);
#2030=LINE('',#2000,#2020);
#2040=CARTESIAN_POINT('',(1.635,-2.22835089148905,14.201251485659));
#2050=VERTEX_POINT('',#2040);
#2060=EDGE_CURVE('',#2050,#1800,#2030,.T.);
#2070=ORIENTED_EDGE('',*,*,#2060,.T.);
#2080=CARTESIAN_POINT('',(-1.27675647831893E-15,-2.22835089148905,
14.201251485659));
#2090=DIRECTION('',(0.,-0.258819045102521,0.965925826289069));
#2100=DIRECTION('',(1.,-2.04172226208012E-31,7.61981121702748E-31));
#2110=AXIS2_PLACEMENT_3D('',#2080,#2090,#2100);
#2120=CIRCLE('',#2110,1.635);
#2130=CARTESIAN_POINT('',(-1.635,-2.22835089148905,14.201251485659));
#2140=VERTEX_POINT('',#2130);
#2150=EDGE_CURVE('',#2140,#2050,#2120,.T.);
#2160=ORIENTED_EDGE('',*,*,#2150,.T.);
#2170=CARTESIAN_POINT('',(-1.635,-1.06366518852771,9.85458526735823));
#2180=DIRECTION('',(0.,0.258819045102521,-0.965925826289068));
#2190=VECTOR('',#2180,1.);
#2200=LINE('',#2170,#2190);
#2210=EDGE_CURVE('',#2140,#1820,#2200,.T.);
#2220=ORIENTED_EDGE('',*,*,#2210,.F.);
#2230=ORIENTED_EDGE('',*,*,#1850,.F.);
#2240=EDGE_LOOP('',(#2230,#2220,#2160,#2070));
#2250=FACE_OUTER_BOUND('',#2240,.T.);
#2260=ADVANCED_FACE('',(#2250),#1990,.F.);
#2270=CARTESIAN_POINT('',(-1.27675647831893E-15,-2.22835089148905,
14.201251485659));
#2280=DIRECTION('',(0.,0.258819045102521,-0.965925826289068));
#2290=DIRECTION('',(1.,0.,0.));
#2300=AXIS2_PLACEMENT_3D('',#2270,#2280,#2290);
#2310=CONICAL_SURFACE('',#2300,1.635,1.02974425867666);
#2320=CARTESIAN_POINT('',(1.635,-2.22835089148905,14.201251485659));
#2330=DIRECTION('',(0.857167300702113,0.13330166273966,
-0.497488578077824));
#2340=VECTOR('',#2330,1.90744560444706);
#2350=LINE('',#2320,#2340);
#2360=CARTESIAN_POINT('',(-6.66133814775094E-16,-2.4826165621473,
15.1501838871762));
#2370=VERTEX_POINT('',#2360);
#2380=EDGE_CURVE('',#2370,#2050,#2350,.T.);
#2390=ORIENTED_EDGE('',*,*,#2380,.T.);
#2400=CARTESIAN_POINT('',(-1.635,-2.22835089148905,14.201251485659));
#2410=DIRECTION('',(-0.857167300702113,0.13330166273966,
-0.497488578077824));
#2420=VECTOR('',#2410,1.90744560444706);
#2430=LINE('',#2400,#2420);
#2440=EDGE_CURVE('',#2370,#2140,#2430,.T.);
#2450=ORIENTED_EDGE('',*,*,#2440,.F.);
#2460=ORIENTED_EDGE('',*,*,#2150,.F.);
#2470=EDGE_LOOP('',(#2460,#2450,#2390));
#2480=FACE_OUTER_BOUND('',#2470,.T.);
#2490=ADVANCED_FACE('',(#2480),#2310,.F.);
#2500=CARTESIAN_POINT('',(-1.27675647831893E-15,-1.0636651885277,
9.85458526735823));
#2510=DIRECTION('',(0.,0.258819045102521,-0.965925826289069));
#2520=DIRECTION('',(1.,0.,0.));
#2530=AXIS2_PLACEMENT_3D('',#2500,#2510,#2520);
#2540=CYLINDRICAL_SURFACE('',#2530,1.635);
#2550=ORIENTED_EDGE('',*,*,#1830,.F.);
#2560=ORIENTED_EDGE('',*,*,#2210,.T.);
#2570=EDGE_CURVE('',#2050,#2140,#2120,.T.);
#2580=ORIENTED_EDGE('',*,*,#2570,.T.);
#2590=ORIENTED_EDGE('',*,*,#2060,.F.);
#2600=EDGE_LOOP('',(#2590,#2580,#2560,#2550));
#2610=FACE_OUTER_BOUND('',#2600,.T.);
#2620=ADVANCED_FACE('',(#2610),#2540,.F.);
#2630=CARTESIAN_POINT('',(-1.27675647831893E-15,-2.22835089148905,
14.201251485659));
#2640=DIRECTION('',(0.,0.258819045102521,-0.965925826289068));
#2650=DIRECTION('',(1.,0.,0.));
#2660=AXIS2_PLACEMENT_3D('',#2630,#2640,#2650);
#2670=CONICAL_SURFACE('',#2660,1.635,1.02974425867666);
#2680=ORIENTED_EDGE('',*,*,#2380,.F.);
#2690=ORIENTED_EDGE('',*,*,#2570,.F.);
#2700=ORIENTED_EDGE('',*,*,#2440,.T.);
#2710=EDGE_LOOP('',(#2700,#2690,#2680));
#2720=FACE_OUTER_BOUND('',#2710,.T.);
#2730=ADVANCED_FACE('',(#2720),#2670,.F.);
#2740=CARTESIAN_POINT('',(0.,0.,0.));
#2750=DIRECTION('',(0.,0.,1.));
#2760=DIRECTION('',(1.,0.,0.));
#2770=AXIS2_PLACEMENT_3D('',#2740,#2750,#2760);
#2780=CYLINDRICAL_SURFACE('',#2770,5.);
#2790=ORIENTED_EDGE('',*,*,#590,.F.);
#2800=ORIENTED_EDGE('',*,*,#970,.T.);
#2810=ORIENTED_EDGE('',*,*,#1240,.T.);
#2820=ORIENTED_EDGE('',*,*,#780,.F.);
#2830=EDGE_LOOP('',(#2820,#2810,#2800,#2790));
#2840=FACE_OUTER_BOUND('',#2830,.T.);
#2850=ADVANCED_FACE('',(#2840),#2780,.T.);
#2860=CARTESIAN_POINT('',(-1.27675647831893E-15,0.2304300369849,
5.02495613591288));
#2870=DIRECTION('',(0.,0.258819045102521,-0.965925826289069));
#2880=DIRECTION('',(1.,0.,0.));
#2890=AXIS2_PLACEMENT_3D('',#2860,#2870,#2880);
#2900=CYLINDRICAL_SURFACE('',#2890,1.65);
#2910=ORIENTED_EDGE('',*,*,#1410,.F.);
#2920=ORIENTED_EDGE('',*,*,#1170,.T.);
#2930=ORIENTED_EDGE('',*,*,#1560,.T.);
#2940=ORIENTED_EDGE('',*,*,#1900,.T.);
#2950=EDGE_LOOP('',(#2940,#2930,#2920,#2910));
#2960=FACE_OUTER_BOUND('',#2950,.T.);
#2970=ADVANCED_FACE('',(#2960),#2900,.F.);
#2980=COLOUR_RGB('',1.,0.,0.);
#2990=FILL_AREA_STYLE_COLOUR('',#2980);
#3000=FILL_AREA_STYLE('',(#2990));
#3010=SURFACE_STYLE_FILL_AREA(#3000);
#3020=SURFACE_SIDE_STYLE('',(#3010));
#3030=SURFACE_STYLE_USAGE(.BOTH.,#3020);
#3040=PRESENTATION_STYLE_ASSIGNMENT((#3030));
#3050=CLOSED_SHELL('',(#1020,#1290,#1610,#1940,#2260,#2490,#2620,#2730,
#2850,#2970,#210,#530,#660));
#3060=MANIFOLD_SOLID_BREP('',#3050);
#3070=CARTESIAN_POINT('',(0.,0.,0.));
#3080=DIRECTION('',(0.,0.,1.));
#3090=DIRECTION('',(1.,0.,0.));
#3100=AXIS2_PLACEMENT_3D('',#3070,#3080,#3090);
#3110=APPLICATION_CONTEXT(' ');
#3120=APPLICATION_PROTOCOL_DEFINITION(' ','automotive_design',1998,#3110
);
#3130=PRODUCT_CONTEXT('',#3110,'mechanical');
#3140=PRODUCT_DEFINITION_CONTEXT('part definition',#3110,'design');
#3150=PRODUCT('Haken','Haken','',(#3130));
#3160=PRODUCT_RELATED_PRODUCT_CATEGORY('part',' ',(#3150));
#3170=PRODUCT_DEFINITION_FORMATION_WITH_SPECIFIED_SOURCE('','',#3150,
.BOUGHT.);
#3180=PRODUCT_DEFINITION('',' ',#3170,#3140);
#3190=PRODUCT_DEFINITION_SHAPE('','',#3180);
#3200=DIMENSIONAL_EXPONENTS(1.,0.,0.,0.,0.,0.,0.);
#3210=DIMENSIONAL_EXPONENTS(0.,0.,0.,0.,0.,0.,0.);
#3220=DIMENSIONAL_EXPONENTS(0.,0.,0.,0.,0.,0.,0.);
#3230=(LENGTH_UNIT() NAMED_UNIT(*) SI_UNIT(.MILLI.,.METRE.));
#3240=(NAMED_UNIT(*) PLANE_ANGLE_UNIT() SI_UNIT($,.RADIAN.));
#3250=(NAMED_UNIT(*) SI_UNIT($,.STERADIAN.) SOLID_ANGLE_UNIT());
#3260=(GEOMETRIC_REPRESENTATION_CONTEXT(3) 
GLOBAL_UNCERTAINTY_ASSIGNED_CONTEXT((#3270)) 
GLOBAL_UNIT_ASSIGNED_CONTEXT((#3230,#3240,#3250)) REPRESENTATION_CONTEXT
('',''));
#3270=UNCERTAINTY_MEASURE_WITH_UNIT(LENGTH_MEASURE(1.E-6),#3230,
'distance_accuracy_value','maximum gap value');
#3280=ADVANCED_BREP_SHAPE_REPRESENTATION('',(#3100,#3060),#3260);
#3290=SHAPE_DEFINITION_REPRESENTATION(#3190,#3280);
#3300=COLOUR_RGB('',0.600000023841858,0.600000023841858,
0.600000023841858);
#3310=FILL_AREA_STYLE_COLOUR('',#3300);
#3320=FILL_AREA_STYLE('',(#3310));
#3330=SURFACE_STYLE_FILL_AREA(#3320);
#3340=SURFACE_SIDE_STYLE('',(#3330));
#3350=SURFACE_STYLE_USAGE(.BOTH.,#3340);
#3360=PRESENTATION_STYLE_ASSIGNMENT((#3350));
#3370=STYLED_ITEM('',(#3360),#3060);
#3380=OVER_RIDING_STYLED_ITEM('',(#1680),#1610,#3370);
#3390=OVER_RIDING_STYLED_ITEM('',(#3040),#2970,#3370);
#3400=DRAUGHTING_MODEL('',(#3370,#3380,#3390),#3260);
ENDSEC;
END-ISO-10303-21;
