ISO-10303-21;
HEADER;
FILE_DESCRIPTION(('Creo Elements/Direct Modeling STEP Export'),'2;1');
FILE_NAME('1406H-172.stp','2017-11-13T 8:44:59',(''),(''),
'Creo Elements/Direct Modeling STEP processor for AP214 (Solid Model)',
'Creo Elements/Direct Modeling 20.0  12-Nov-2016 (C) Parametric Technolo
gy GmbH','');
FILE_SCHEMA(('AUTOMOTIVE_DESIGN { 1 0 10303 214 1 1 1 1 }'));
ENDSEC;
DATA;
#10=CARTESIAN_POINT('',(0.,26.35,0.));
#20=DIRECTION('',(0.,0.,1.));
#30=DIRECTION('',(1.,0.,0.));
#40=AXIS2_PLACEMENT_3D('',#10,#20,#30);
#50=CYLINDRICAL_SURFACE('',#40,6.35);
#60=CARTESIAN_POINT('',(-4.44089209850063E-16,26.35,-80.));
#70=DIRECTION('',(0.,0.707106781186548,0.707106781186548));
#80=DIRECTION('',(0.,-0.707106781186548,0.707106781186548));
#90=AXIS2_PLACEMENT_3D('',#60,#70,#80);
#100=ELLIPSE('',#90,8.98025612106916,6.35);
#110=CARTESIAN_POINT('',(6.35,26.35,-80.));
#120=VERTEX_POINT('',#110);
#130=CARTESIAN_POINT('',(-1.66582913715869E-15,32.7,-86.35));
#140=VERTEX_POINT('',#130);
#150=EDGE_CURVE('',#120,#140,#100,.T.);
#160=ORIENTED_EDGE('',*,*,#150,.T.);
#170=CARTESIAN_POINT('',(6.35,26.35,0.));
#180=DIRECTION('',(0.,0.,1.));
#190=VECTOR('',#180,1.);
#200=LINE('',#170,#190);
#210=CARTESIAN_POINT('',(6.35,26.35,80.));
#220=VERTEX_POINT('',#210);
#230=EDGE_CURVE('',#120,#220,#200,.T.);
#240=ORIENTED_EDGE('',*,*,#230,.F.);
#250=CARTESIAN_POINT('',(-4.44089209850063E-16,26.35,80.));
#260=DIRECTION('',(0.,-0.707106781186548,0.707106781186548));
#270=DIRECTION('',(0.,0.707106781186548,0.707106781186548));
#280=AXIS2_PLACEMENT_3D('',#250,#260,#270);
#290=ELLIPSE('',#280,8.98025612106916,6.35);
#300=CARTESIAN_POINT('',(-8.88178419700125E-16,32.7,86.35));
#310=VERTEX_POINT('',#300);
#320=EDGE_CURVE('',#220,#310,#290,.T.);
#330=ORIENTED_EDGE('',*,*,#320,.F.);
#340=CARTESIAN_POINT('',(-6.35,26.35,80.));
#350=VERTEX_POINT('',#340);
#360=EDGE_CURVE('',#310,#350,#290,.T.);
#370=ORIENTED_EDGE('',*,*,#360,.F.);
#380=CARTESIAN_POINT('',(-6.35,26.35,0.));
#390=DIRECTION('',(0.,0.,1.));
#400=VECTOR('',#390,1.);
#410=LINE('',#380,#400);
#420=CARTESIAN_POINT('',(-6.35,26.35,-80.));
#430=VERTEX_POINT('',#420);
#440=EDGE_CURVE('',#430,#350,#410,.T.);
#450=ORIENTED_EDGE('',*,*,#440,.T.);
#460=EDGE_CURVE('',#140,#430,#100,.T.);
#470=ORIENTED_EDGE('',*,*,#460,.T.);
#480=EDGE_LOOP('',(#470,#450,#370,#330,#240,#160));
#490=FACE_OUTER_BOUND('',#480,.T.);
#500=ADVANCED_FACE('',(#490),#50,.T.);
#510=CARTESIAN_POINT('',(0.,0.,-32.));
#520=DIRECTION('',(0.,-1.,0.));
#530=DIRECTION('',(0.,0.,1.));
#540=AXIS2_PLACEMENT_3D('',#510,#520,#530);
#550=PLANE('',#540);
#560=CARTESIAN_POINT('',(0.,0.,-80.));
#570=DIRECTION('',(0.,-1.,0.));
#580=DIRECTION('',(1.,0.,0.));
#590=AXIS2_PLACEMENT_3D('',#560,#570,#580);
#600=CIRCLE('',#590,1.65);
#610=CARTESIAN_POINT('',(-1.65,0.,-80.));
#620=VERTEX_POINT('',#610);
#630=CARTESIAN_POINT('',(1.65,0.,-80.));
#640=VERTEX_POINT('',#630);
#650=EDGE_CURVE('',#620,#640,#600,.T.);
#660=ORIENTED_EDGE('',*,*,#650,.F.);
#670=EDGE_CURVE('',#640,#620,#600,.T.);
#680=ORIENTED_EDGE('',*,*,#670,.F.);
#690=EDGE_LOOP('',(#680,#660));
#700=FACE_BOUND('',#690,.T.);
#710=CARTESIAN_POINT('',(-8.88178419700125E-16,0.,-80.));
#720=DIRECTION('',(0.,-1.,0.));
#730=DIRECTION('',(0.,0.,1.));
#740=AXIS2_PLACEMENT_3D('',#710,#720,#730);
#750=CIRCLE('',#740,6.35);
#760=CARTESIAN_POINT('',(-1.66582913715869E-15,0.,-86.35));
#770=VERTEX_POINT('',#760);
#780=CARTESIAN_POINT('',(-8.88178419700125E-16,0.,-73.65));
#790=VERTEX_POINT('',#780);
#800=EDGE_CURVE('',#770,#790,#750,.T.);
#810=ORIENTED_EDGE('',*,*,#800,.T.);
#820=EDGE_CURVE('',#790,#770,#750,.T.);
#830=ORIENTED_EDGE('',*,*,#820,.T.);
#840=EDGE_LOOP('',(#830,#810));
#850=FACE_OUTER_BOUND('',#840,.T.);
#860=ADVANCED_FACE('',(#700,#850),#550,.T.);
#870=CARTESIAN_POINT('',(-8.88178419700125E-16,0.,-80.));
#880=DIRECTION('',(0.,-1.,0.));
#890=DIRECTION('',(0.,0.,1.));
#900=AXIS2_PLACEMENT_3D('',#870,#880,#890);
#910=CYLINDRICAL_SURFACE('',#900,6.35);
#920=ORIENTED_EDGE('',*,*,#150,.F.);
#930=CARTESIAN_POINT('',(-1.66582913715869E-15,0.,-86.35));
#940=DIRECTION('',(0.,-1.,0.));
#950=VECTOR('',#940,1.);
#960=LINE('',#930,#950);
#970=EDGE_CURVE('',#140,#770,#960,.T.);
#980=ORIENTED_EDGE('',*,*,#970,.F.);
#990=ORIENTED_EDGE('',*,*,#800,.F.);
#1000=CARTESIAN_POINT('',(-8.88178419700125E-16,0.,-73.65));
#1010=DIRECTION('',(0.,-1.,0.));
#1020=VECTOR('',#1010,1.);
#1030=LINE('',#1000,#1020);
#1040=CARTESIAN_POINT('',(-8.88178419700125E-16,20.,-73.65));
#1050=VERTEX_POINT('',#1040);
#1060=EDGE_CURVE('',#1050,#790,#1030,.T.);
#1070=ORIENTED_EDGE('',*,*,#1060,.T.);
#1080=EDGE_CURVE('',#1050,#120,#100,.T.);
#1090=ORIENTED_EDGE('',*,*,#1080,.F.);
#1100=EDGE_LOOP('',(#1090,#1070,#990,#980,#920));
#1110=FACE_OUTER_BOUND('',#1100,.T.);
#1120=ADVANCED_FACE('',(#1110),#910,.T.);
#1130=CARTESIAN_POINT('',(-8.88178419700125E-16,0.,80.));
#1140=DIRECTION('',(0.,-1.,0.));
#1150=DIRECTION('',(0.,0.,1.));
#1160=AXIS2_PLACEMENT_3D('',#1130,#1140,#1150);
#1170=CYLINDRICAL_SURFACE('',#1160,6.35);
#1180=CARTESIAN_POINT('',(-8.88178419700125E-16,0.,86.35));
#1190=DIRECTION('',(0.,-1.,0.));
#1200=VECTOR('',#1190,1.);
#1210=LINE('',#1180,#1200);
#1220=CARTESIAN_POINT('',(-8.88178419700125E-16,0.,86.35));
#1230=VERTEX_POINT('',#1220);
#1240=EDGE_CURVE('',#310,#1230,#1210,.T.);
#1250=ORIENTED_EDGE('',*,*,#1240,.F.);
#1260=CARTESIAN_POINT('',(-8.88178419700125E-16,0.,80.));
#1270=DIRECTION('',(0.,-1.,0.));
#1280=DIRECTION('',(0.,0.,1.));
#1290=AXIS2_PLACEMENT_3D('',#1260,#1270,#1280);
#1300=CIRCLE('',#1290,6.35);
#1310=CARTESIAN_POINT('',(-1.66582913715869E-15,0.,73.65));
#1320=VERTEX_POINT('',#1310);
#1330=EDGE_CURVE('',#1230,#1320,#1300,.T.);
#1340=ORIENTED_EDGE('',*,*,#1330,.F.);
#1350=CARTESIAN_POINT('',(-1.66582913715869E-15,0.,73.65));
#1360=DIRECTION('',(0.,-1.,0.));
#1370=VECTOR('',#1360,1.);
#1380=LINE('',#1350,#1370);
#1390=CARTESIAN_POINT('',(-1.66582913715869E-15,20.,73.65));
#1400=VERTEX_POINT('',#1390);
#1410=EDGE_CURVE('',#1400,#1320,#1380,.T.);
#1420=ORIENTED_EDGE('',*,*,#1410,.T.);
#1430=EDGE_CURVE('',#350,#1400,#290,.T.);
#1440=ORIENTED_EDGE('',*,*,#1430,.T.);
#1450=ORIENTED_EDGE('',*,*,#360,.T.);
#1460=EDGE_LOOP('',(#1450,#1440,#1420,#1340,#1250));
#1470=FACE_OUTER_BOUND('',#1460,.T.);
#1480=ADVANCED_FACE('',(#1470),#1170,.T.);
#1490=CARTESIAN_POINT('',(0.,0.,32.));
#1500=DIRECTION('',(0.,-1.,0.));
#1510=DIRECTION('',(0.,0.,1.));
#1520=AXIS2_PLACEMENT_3D('',#1490,#1500,#1510);
#1530=PLANE('',#1520);
#1540=CARTESIAN_POINT('',(0.,0.,80.));
#1550=DIRECTION('',(0.,-1.,0.));
#1560=DIRECTION('',(1.,0.,0.));
#1570=AXIS2_PLACEMENT_3D('',#1540,#1550,#1560);
#1580=CIRCLE('',#1570,1.65);
#1590=CARTESIAN_POINT('',(-1.65,0.,80.));
#1600=VERTEX_POINT('',#1590);
#1610=CARTESIAN_POINT('',(1.65,0.,80.));
#1620=VERTEX_POINT('',#1610);
#1630=EDGE_CURVE('',#1600,#1620,#1580,.T.);
#1640=ORIENTED_EDGE('',*,*,#1630,.F.);
#1650=EDGE_CURVE('',#1620,#1600,#1580,.T.);
#1660=ORIENTED_EDGE('',*,*,#1650,.F.);
#1670=EDGE_LOOP('',(#1660,#1640));
#1680=FACE_BOUND('',#1670,.T.);
#1690=EDGE_CURVE('',#1320,#1230,#1300,.T.);
#1700=ORIENTED_EDGE('',*,*,#1690,.T.);
#1710=ORIENTED_EDGE('',*,*,#1330,.T.);
#1720=EDGE_LOOP('',(#1710,#1700));
#1730=FACE_OUTER_BOUND('',#1720,.T.);
#1740=ADVANCED_FACE('',(#1680,#1730),#1530,.T.);
#1750=CARTESIAN_POINT('',(0.,3.5,80.));
#1760=DIRECTION('',(0.,-1.,0.));
#1770=DIRECTION('',(1.,0.,0.));
#1780=AXIS2_PLACEMENT_3D('',#1750,#1760,#1770);
#1790=CYLINDRICAL_SURFACE('',#1780,1.65);
#1800=CARTESIAN_POINT('',(-1.65,3.5,80.));
#1810=DIRECTION('',(0.,-1.,0.));
#1820=VECTOR('',#1810,1.);
#1830=LINE('',#1800,#1820);
#1840=CARTESIAN_POINT('',(-1.65,7.,80.));
#1850=VERTEX_POINT('',#1840);
#1860=EDGE_CURVE('',#1850,#1600,#1830,.T.);
#1870=ORIENTED_EDGE('',*,*,#1860,.F.);
#1880=ORIENTED_EDGE('',*,*,#1650,.T.);
#1890=CARTESIAN_POINT('',(1.65,3.5,80.));
#1900=DIRECTION('',(0.,-1.,0.));
#1910=VECTOR('',#1900,1.);
#1920=LINE('',#1890,#1910);
#1930=CARTESIAN_POINT('',(1.65,7.,80.));
#1940=VERTEX_POINT('',#1930);
#1950=EDGE_CURVE('',#1940,#1620,#1920,.T.);
#1960=ORIENTED_EDGE('',*,*,#1950,.T.);
#1970=CARTESIAN_POINT('',(0.,7.,80.));
#1980=DIRECTION('',(0.,1.,0.));
#1990=DIRECTION('',(1.,0.,0.));
#2000=AXIS2_PLACEMENT_3D('',#1970,#1980,#1990);
#2010=CIRCLE('',#2000,1.65);
#2020=EDGE_CURVE('',#1850,#1940,#2010,.T.);
#2030=ORIENTED_EDGE('',*,*,#2020,.T.);
#2040=EDGE_LOOP('',(#2030,#1960,#1880,#1870));
#2050=FACE_OUTER_BOUND('',#2040,.T.);
#2060=ADVANCED_FACE('',(#2050),#1790,.F.);
#2070=COLOUR_RGB('',1.,0.,0.);
#2080=FILL_AREA_STYLE_COLOUR('',#2070);
#2090=FILL_AREA_STYLE('',(#2080));
#2100=SURFACE_STYLE_FILL_AREA(#2090);
#2110=SURFACE_SIDE_STYLE('',(#2100));
#2120=SURFACE_STYLE_USAGE(.BOTH.,#2110);
#2130=PRESENTATION_STYLE_ASSIGNMENT((#2120));
#2140=CARTESIAN_POINT('',(1.6425,7.,80.));
#2150=DIRECTION('',(0.,-1.,0.));
#2160=DIRECTION('',(1.,0.,0.));
#2170=AXIS2_PLACEMENT_3D('',#2140,#2150,#2160);
#2180=PLANE('',#2170);
#2190=CARTESIAN_POINT('',(0.,7.,80.));
#2200=DIRECTION('',(0.,1.,0.));
#2210=DIRECTION('',(1.,0.,0.));
#2220=AXIS2_PLACEMENT_3D('',#2190,#2200,#2210);
#2230=CIRCLE('',#2220,1.635);
#2240=CARTESIAN_POINT('',(1.635,7.,80.));
#2250=VERTEX_POINT('',#2240);
#2260=CARTESIAN_POINT('',(-1.635,7.,80.));
#2270=VERTEX_POINT('',#2260);
#2280=EDGE_CURVE('',#2250,#2270,#2230,.T.);
#2290=ORIENTED_EDGE('',*,*,#2280,.T.);
#2300=EDGE_CURVE('',#2270,#2250,#2230,.T.);
#2310=ORIENTED_EDGE('',*,*,#2300,.T.);
#2320=EDGE_LOOP('',(#2310,#2290));
#2330=FACE_BOUND('',#2320,.T.);
#2340=EDGE_CURVE('',#1940,#1850,#2010,.T.);
#2350=ORIENTED_EDGE('',*,*,#2340,.F.);
#2360=ORIENTED_EDGE('',*,*,#2020,.F.);
#2370=EDGE_LOOP('',(#2360,#2350));
#2380=FACE_OUTER_BOUND('',#2370,.T.);
#2390=ADVANCED_FACE('',(#2330,#2380),#2180,.T.);
#2400=CARTESIAN_POINT('',(0.,8.,80.));
#2410=DIRECTION('',(0.,-1.,0.));
#2420=DIRECTION('',(1.,0.,0.));
#2430=AXIS2_PLACEMENT_3D('',#2400,#2410,#2420);
#2440=CYLINDRICAL_SURFACE('',#2430,1.635);
#2450=CARTESIAN_POINT('',(1.635,8.,80.));
#2460=DIRECTION('',(0.,-1.,0.));
#2470=VECTOR('',#2460,1.);
#2480=LINE('',#2450,#2470);
#2490=CARTESIAN_POINT('',(1.635,9.,80.));
#2500=VERTEX_POINT('',#2490);
#2510=EDGE_CURVE('',#2500,#2250,#2480,.T.);
#2520=ORIENTED_EDGE('',*,*,#2510,.F.);
#2530=ORIENTED_EDGE('',*,*,#2280,.F.);
#2540=CARTESIAN_POINT('',(-1.635,8.,80.));
#2550=DIRECTION('',(0.,-1.,0.));
#2560=VECTOR('',#2550,1.);
#2570=LINE('',#2540,#2560);
#2580=CARTESIAN_POINT('',(-1.635,9.,80.));
#2590=VERTEX_POINT('',#2580);
#2600=EDGE_CURVE('',#2590,#2270,#2570,.T.);
#2610=ORIENTED_EDGE('',*,*,#2600,.T.);
#2620=CARTESIAN_POINT('',(0.,9.,80.));
#2630=DIRECTION('',(0.,1.,0.));
#2640=DIRECTION('',(1.,0.,0.));
#2650=AXIS2_PLACEMENT_3D('',#2620,#2630,#2640);
#2660=CIRCLE('',#2650,1.635);
#2670=EDGE_CURVE('',#2500,#2590,#2660,.T.);
#2680=ORIENTED_EDGE('',*,*,#2670,.T.);
#2690=EDGE_LOOP('',(#2680,#2610,#2530,#2520));
#2700=FACE_OUTER_BOUND('',#2690,.T.);
#2710=ADVANCED_FACE('',(#2700),#2440,.F.);
#2720=CARTESIAN_POINT('',(0.,9.,80.));
#2730=DIRECTION('',(0.,-1.,0.));
#2740=DIRECTION('',(-1.,-0.,0.));
#2750=AXIS2_PLACEMENT_3D('',#2720,#2730,#2740);
#2760=CONICAL_SURFACE('',#2750,1.635,1.02974425867666);
#2770=CARTESIAN_POINT('',(-1.635,9.,80.));
#2780=DIRECTION('',(-0.857167300702115,-0.51503807491005,0.));
#2790=VECTOR('',#2780,1.90744560444706);
#2800=LINE('',#2770,#2790);
#2810=CARTESIAN_POINT('',(-4.44089209850063E-16,9.98240711211005,80.));
#2820=VERTEX_POINT('',#2810);
#2830=EDGE_CURVE('',#2820,#2590,#2800,.T.);
#2840=ORIENTED_EDGE('',*,*,#2830,.F.);
#2850=EDGE_CURVE('',#2590,#2500,#2660,.T.);
#2860=ORIENTED_EDGE('',*,*,#2850,.F.);
#2870=CARTESIAN_POINT('',(1.635,9.,80.));
#2880=DIRECTION('',(0.857167300702115,-0.51503807491005,0.));
#2890=VECTOR('',#2880,1.90744560444706);
#2900=LINE('',#2870,#2890);
#2910=EDGE_CURVE('',#2820,#2500,#2900,.T.);
#2920=ORIENTED_EDGE('',*,*,#2910,.T.);
#2930=EDGE_LOOP('',(#2920,#2860,#2840));
#2940=FACE_OUTER_BOUND('',#2930,.T.);
#2950=ADVANCED_FACE('',(#2940),#2760,.F.);
#2960=CARTESIAN_POINT('',(0.,3.5,-80.));
#2970=DIRECTION('',(0.,-1.,0.));
#2980=DIRECTION('',(1.,0.,0.));
#2990=AXIS2_PLACEMENT_3D('',#2960,#2970,#2980);
#3000=CYLINDRICAL_SURFACE('',#2990,1.65);
#3010=CARTESIAN_POINT('',(1.65,3.5,-80.));
#3020=DIRECTION('',(0.,-1.,0.));
#3030=VECTOR('',#3020,1.);
#3040=LINE('',#3010,#3030);
#3050=CARTESIAN_POINT('',(1.65,7.,-80.));
#3060=VERTEX_POINT('',#3050);
#3070=EDGE_CURVE('',#3060,#640,#3040,.T.);
#3080=ORIENTED_EDGE('',*,*,#3070,.T.);
#3090=CARTESIAN_POINT('',(0.,7.,-80.));
#3100=DIRECTION('',(0.,1.,0.));
#3110=DIRECTION('',(1.,0.,0.));
#3120=AXIS2_PLACEMENT_3D('',#3090,#3100,#3110);
#3130=CIRCLE('',#3120,1.65);
#3140=CARTESIAN_POINT('',(-1.65,7.,-80.));
#3150=VERTEX_POINT('',#3140);
#3160=EDGE_CURVE('',#3150,#3060,#3130,.T.);
#3170=ORIENTED_EDGE('',*,*,#3160,.T.);
#3180=CARTESIAN_POINT('',(-1.65,3.5,-80.));
#3190=DIRECTION('',(0.,-1.,0.));
#3200=VECTOR('',#3190,1.);
#3210=LINE('',#3180,#3200);
#3220=EDGE_CURVE('',#3150,#620,#3210,.T.);
#3230=ORIENTED_EDGE('',*,*,#3220,.F.);
#3240=ORIENTED_EDGE('',*,*,#670,.T.);
#3250=EDGE_LOOP('',(#3240,#3230,#3170,#3080));
#3260=FACE_OUTER_BOUND('',#3250,.T.);
#3270=ADVANCED_FACE('',(#3260),#3000,.F.);
#3280=COLOUR_RGB('',1.,0.,0.);
#3290=FILL_AREA_STYLE_COLOUR('',#3280);
#3300=FILL_AREA_STYLE('',(#3290));
#3310=SURFACE_STYLE_FILL_AREA(#3300);
#3320=SURFACE_SIDE_STYLE('',(#3310));
#3330=SURFACE_STYLE_USAGE(.BOTH.,#3320);
#3340=PRESENTATION_STYLE_ASSIGNMENT((#3330));
#3350=CARTESIAN_POINT('',(1.6425,7.,-80.));
#3360=DIRECTION('',(0.,-1.,0.));
#3370=DIRECTION('',(1.,0.,0.));
#3380=AXIS2_PLACEMENT_3D('',#3350,#3360,#3370);
#3390=PLANE('',#3380);
#3400=CARTESIAN_POINT('',(0.,7.,-80.));
#3410=DIRECTION('',(0.,1.,0.));
#3420=DIRECTION('',(1.,0.,0.));
#3430=AXIS2_PLACEMENT_3D('',#3400,#3410,#3420);
#3440=CIRCLE('',#3430,1.635);
#3450=CARTESIAN_POINT('',(1.635,7.,-80.));
#3460=VERTEX_POINT('',#3450);
#3470=CARTESIAN_POINT('',(-1.635,7.,-80.));
#3480=VERTEX_POINT('',#3470);
#3490=EDGE_CURVE('',#3460,#3480,#3440,.T.);
#3500=ORIENTED_EDGE('',*,*,#3490,.T.);
#3510=EDGE_CURVE('',#3480,#3460,#3440,.T.);
#3520=ORIENTED_EDGE('',*,*,#3510,.T.);
#3530=EDGE_LOOP('',(#3520,#3500));
#3540=FACE_BOUND('',#3530,.T.);
#3550=ORIENTED_EDGE('',*,*,#3160,.F.);
#3560=EDGE_CURVE('',#3060,#3150,#3130,.T.);
#3570=ORIENTED_EDGE('',*,*,#3560,.F.);
#3580=EDGE_LOOP('',(#3570,#3550));
#3590=FACE_OUTER_BOUND('',#3580,.T.);
#3600=ADVANCED_FACE('',(#3540,#3590),#3390,.T.);
#3610=CARTESIAN_POINT('',(0.,8.,-80.));
#3620=DIRECTION('',(0.,-1.,0.));
#3630=DIRECTION('',(1.,0.,0.));
#3640=AXIS2_PLACEMENT_3D('',#3610,#3620,#3630);
#3650=CYLINDRICAL_SURFACE('',#3640,1.635);
#3660=CARTESIAN_POINT('',(1.635,8.,-80.));
#3670=DIRECTION('',(0.,-1.,0.));
#3680=VECTOR('',#3670,1.);
#3690=LINE('',#3660,#3680);
#3700=CARTESIAN_POINT('',(1.635,9.,-80.));
#3710=VERTEX_POINT('',#3700);
#3720=EDGE_CURVE('',#3710,#3460,#3690,.T.);
#3730=ORIENTED_EDGE('',*,*,#3720,.T.);
#3740=CARTESIAN_POINT('',(0.,9.,-80.));
#3750=DIRECTION('',(0.,1.,0.));
#3760=DIRECTION('',(1.,0.,0.));
#3770=AXIS2_PLACEMENT_3D('',#3740,#3750,#3760);
#3780=CIRCLE('',#3770,1.635);
#3790=CARTESIAN_POINT('',(-1.635,9.,-80.));
#3800=VERTEX_POINT('',#3790);
#3810=EDGE_CURVE('',#3800,#3710,#3780,.T.);
#3820=ORIENTED_EDGE('',*,*,#3810,.T.);
#3830=CARTESIAN_POINT('',(-1.635,8.,-80.));
#3840=DIRECTION('',(0.,-1.,0.));
#3850=VECTOR('',#3840,1.);
#3860=LINE('',#3830,#3850);
#3870=EDGE_CURVE('',#3800,#3480,#3860,.T.);
#3880=ORIENTED_EDGE('',*,*,#3870,.F.);
#3890=ORIENTED_EDGE('',*,*,#3510,.F.);
#3900=EDGE_LOOP('',(#3890,#3880,#3820,#3730));
#3910=FACE_OUTER_BOUND('',#3900,.T.);
#3920=ADVANCED_FACE('',(#3910),#3650,.F.);
#3930=CARTESIAN_POINT('',(0.,9.,-80.));
#3940=DIRECTION('',(0.,-1.,0.));
#3950=DIRECTION('',(-1.,-0.,0.));
#3960=AXIS2_PLACEMENT_3D('',#3930,#3940,#3950);
#3970=CONICAL_SURFACE('',#3960,1.635,1.02974425867666);
#3980=CARTESIAN_POINT('',(-1.635,9.,-80.));
#3990=DIRECTION('',(-0.857167300702115,-0.51503807491005,0.));
#4000=VECTOR('',#3990,1.90744560444706);
#4010=LINE('',#3980,#4000);
#4020=CARTESIAN_POINT('',(-4.44089209850063E-16,9.98240711211005,-80.));
#4030=VERTEX_POINT('',#4020);
#4040=EDGE_CURVE('',#4030,#3800,#4010,.T.);
#4050=ORIENTED_EDGE('',*,*,#4040,.F.);
#4060=ORIENTED_EDGE('',*,*,#3810,.F.);
#4070=CARTESIAN_POINT('',(1.635,9.,-80.));
#4080=DIRECTION('',(0.857167300702115,-0.51503807491005,0.));
#4090=VECTOR('',#4080,1.90744560444706);
#4100=LINE('',#4070,#4090);
#4110=EDGE_CURVE('',#4030,#3710,#4100,.T.);
#4120=ORIENTED_EDGE('',*,*,#4110,.T.);
#4130=EDGE_LOOP('',(#4120,#4060,#4050));
#4140=FACE_OUTER_BOUND('',#4130,.T.);
#4150=ADVANCED_FACE('',(#4140),#3970,.F.);
#4160=CARTESIAN_POINT('',(0.,9.,80.));
#4170=DIRECTION('',(0.,-1.,0.));
#4180=DIRECTION('',(-1.,-0.,0.));
#4190=AXIS2_PLACEMENT_3D('',#4160,#4170,#4180);
#4200=CONICAL_SURFACE('',#4190,1.635,1.02974425867666);
#4210=ORIENTED_EDGE('',*,*,#2830,.T.);
#4220=ORIENTED_EDGE('',*,*,#2910,.F.);
#4230=ORIENTED_EDGE('',*,*,#2670,.F.);
#4240=EDGE_LOOP('',(#4230,#4220,#4210));
#4250=FACE_OUTER_BOUND('',#4240,.T.);
#4260=ADVANCED_FACE('',(#4250),#4200,.F.);
#4270=CARTESIAN_POINT('',(0.,3.5,80.));
#4280=DIRECTION('',(0.,-1.,0.));
#4290=DIRECTION('',(1.,0.,0.));
#4300=AXIS2_PLACEMENT_3D('',#4270,#4280,#4290);
#4310=CYLINDRICAL_SURFACE('',#4300,1.65);
#4320=ORIENTED_EDGE('',*,*,#1630,.T.);
#4330=ORIENTED_EDGE('',*,*,#1860,.T.);
#4340=ORIENTED_EDGE('',*,*,#2340,.T.);
#4350=ORIENTED_EDGE('',*,*,#1950,.F.);
#4360=EDGE_LOOP('',(#4350,#4340,#4330,#4320));
#4370=FACE_OUTER_BOUND('',#4360,.T.);
#4380=ADVANCED_FACE('',(#4370),#4310,.F.);
#4390=COLOUR_RGB('',1.,0.,0.);
#4400=FILL_AREA_STYLE_COLOUR('',#4390);
#4410=FILL_AREA_STYLE('',(#4400));
#4420=SURFACE_STYLE_FILL_AREA(#4410);
#4430=SURFACE_SIDE_STYLE('',(#4420));
#4440=SURFACE_STYLE_USAGE(.BOTH.,#4430);
#4450=PRESENTATION_STYLE_ASSIGNMENT((#4440));
#4460=CARTESIAN_POINT('',(0.,9.,-80.));
#4470=DIRECTION('',(0.,-1.,0.));
#4480=DIRECTION('',(-1.,-0.,0.));
#4490=AXIS2_PLACEMENT_3D('',#4460,#4470,#4480);
#4500=CONICAL_SURFACE('',#4490,1.635,1.02974425867666);
#4510=EDGE_CURVE('',#3710,#3800,#3780,.T.);
#4520=ORIENTED_EDGE('',*,*,#4510,.F.);
#4530=ORIENTED_EDGE('',*,*,#4040,.T.);
#4540=ORIENTED_EDGE('',*,*,#4110,.F.);
#4550=EDGE_LOOP('',(#4540,#4530,#4520));
#4560=FACE_OUTER_BOUND('',#4550,.T.);
#4570=ADVANCED_FACE('',(#4560),#4500,.F.);
#4580=CARTESIAN_POINT('',(-8.88178419700125E-16,0.,-80.));
#4590=DIRECTION('',(0.,-1.,0.));
#4600=DIRECTION('',(0.,0.,1.));
#4610=AXIS2_PLACEMENT_3D('',#4580,#4590,#4600);
#4620=CYLINDRICAL_SURFACE('',#4610,6.35);
#4630=ORIENTED_EDGE('',*,*,#970,.T.);
#4640=ORIENTED_EDGE('',*,*,#460,.F.);
#4650=EDGE_CURVE('',#430,#1050,#100,.T.);
#4660=ORIENTED_EDGE('',*,*,#4650,.F.);
#4670=ORIENTED_EDGE('',*,*,#1060,.F.);
#4680=ORIENTED_EDGE('',*,*,#820,.F.);
#4690=EDGE_LOOP('',(#4680,#4670,#4660,#4640,#4630));
#4700=FACE_OUTER_BOUND('',#4690,.T.);
#4710=ADVANCED_FACE('',(#4700),#4620,.T.);
#4720=CARTESIAN_POINT('',(0.,3.5,-80.));
#4730=DIRECTION('',(0.,-1.,0.));
#4740=DIRECTION('',(1.,0.,0.));
#4750=AXIS2_PLACEMENT_3D('',#4720,#4730,#4740);
#4760=CYLINDRICAL_SURFACE('',#4750,1.65);
#4770=ORIENTED_EDGE('',*,*,#3070,.F.);
#4780=ORIENTED_EDGE('',*,*,#650,.T.);
#4790=ORIENTED_EDGE('',*,*,#3220,.T.);
#4800=ORIENTED_EDGE('',*,*,#3560,.T.);
#4810=EDGE_LOOP('',(#4800,#4790,#4780,#4770));
#4820=FACE_OUTER_BOUND('',#4810,.T.);
#4830=ADVANCED_FACE('',(#4820),#4760,.F.);
#4840=COLOUR_RGB('',1.,0.,0.);
#4850=FILL_AREA_STYLE_COLOUR('',#4840);
#4860=FILL_AREA_STYLE('',(#4850));
#4870=SURFACE_STYLE_FILL_AREA(#4860);
#4880=SURFACE_SIDE_STYLE('',(#4870));
#4890=SURFACE_STYLE_USAGE(.BOTH.,#4880);
#4900=PRESENTATION_STYLE_ASSIGNMENT((#4890));
#4910=CARTESIAN_POINT('',(0.,8.,-80.));
#4920=DIRECTION('',(0.,-1.,0.));
#4930=DIRECTION('',(1.,0.,0.));
#4940=AXIS2_PLACEMENT_3D('',#4910,#4920,#4930);
#4950=CYLINDRICAL_SURFACE('',#4940,1.635);
#4960=ORIENTED_EDGE('',*,*,#3490,.F.);
#4970=ORIENTED_EDGE('',*,*,#3870,.T.);
#4980=ORIENTED_EDGE('',*,*,#4510,.T.);
#4990=ORIENTED_EDGE('',*,*,#3720,.F.);
#5000=EDGE_LOOP('',(#4990,#4980,#4970,#4960));
#5010=FACE_OUTER_BOUND('',#5000,.T.);
#5020=ADVANCED_FACE('',(#5010),#4950,.F.);
#5030=CARTESIAN_POINT('',(0.,26.35,0.));
#5040=DIRECTION('',(0.,0.,1.));
#5050=DIRECTION('',(1.,0.,0.));
#5060=AXIS2_PLACEMENT_3D('',#5030,#5040,#5050);
#5070=CYLINDRICAL_SURFACE('',#5060,6.35);
#5080=ORIENTED_EDGE('',*,*,#1430,.F.);
#5090=EDGE_CURVE('',#1400,#220,#290,.T.);
#5100=ORIENTED_EDGE('',*,*,#5090,.F.);
#5110=ORIENTED_EDGE('',*,*,#230,.T.);
#5120=ORIENTED_EDGE('',*,*,#1080,.T.);
#5130=ORIENTED_EDGE('',*,*,#4650,.T.);
#5140=ORIENTED_EDGE('',*,*,#440,.F.);
#5150=EDGE_LOOP('',(#5140,#5130,#5120,#5110,#5100,#5080));
#5160=FACE_OUTER_BOUND('',#5150,.T.);
#5170=ADVANCED_FACE('',(#5160),#5070,.T.);
#5180=CARTESIAN_POINT('',(-8.88178419700125E-16,0.,80.));
#5190=DIRECTION('',(0.,-1.,0.));
#5200=DIRECTION('',(0.,0.,1.));
#5210=AXIS2_PLACEMENT_3D('',#5180,#5190,#5200);
#5220=CYLINDRICAL_SURFACE('',#5210,6.35);
#5230=ORIENTED_EDGE('',*,*,#320,.T.);
#5240=ORIENTED_EDGE('',*,*,#5090,.T.);
#5250=ORIENTED_EDGE('',*,*,#1410,.F.);
#5260=ORIENTED_EDGE('',*,*,#1690,.F.);
#5270=ORIENTED_EDGE('',*,*,#1240,.T.);
#5280=EDGE_LOOP('',(#5270,#5260,#5250,#5240,#5230));
#5290=FACE_OUTER_BOUND('',#5280,.T.);
#5300=ADVANCED_FACE('',(#5290),#5220,.T.);
#5310=CARTESIAN_POINT('',(0.,8.,80.));
#5320=DIRECTION('',(0.,-1.,0.));
#5330=DIRECTION('',(1.,0.,0.));
#5340=AXIS2_PLACEMENT_3D('',#5310,#5320,#5330);
#5350=CYLINDRICAL_SURFACE('',#5340,1.635);
#5360=ORIENTED_EDGE('',*,*,#2510,.T.);
#5370=ORIENTED_EDGE('',*,*,#2850,.T.);
#5380=ORIENTED_EDGE('',*,*,#2600,.F.);
#5390=ORIENTED_EDGE('',*,*,#2300,.F.);
#5400=EDGE_LOOP('',(#5390,#5380,#5370,#5360));
#5410=FACE_OUTER_BOUND('',#5400,.T.);
#5420=ADVANCED_FACE('',(#5410),#5350,.F.);
#5430=CLOSED_SHELL('',(#500,#860,#1120,#1480,#1740,#2060,#2390,#2710,
#2950,#3270,#3600,#3920,#4150,#4260,#4380,#4570,#4710,#4830,#5020,#5170,
#5300,#5420));
#5440=MANIFOLD_SOLID_BREP('',#5430);
#5450=CARTESIAN_POINT('',(0.,0.,0.));
#5460=DIRECTION('',(0.,0.,1.));
#5470=DIRECTION('',(1.,0.,0.));
#5480=AXIS2_PLACEMENT_3D('',#5450,#5460,#5470);
#5490=APPLICATION_CONTEXT(' ');
#5500=APPLICATION_PROTOCOL_DEFINITION(' ','automotive_design',1998,#5490
);
#5510=PRODUCT_CONTEXT('',#5490,'mechanical');
#5520=PRODUCT_DEFINITION_CONTEXT('part definition',#5490,'design');
#5530=PRODUCT('1406H-172','1406H-172','',(#5510));
#5540=PRODUCT_RELATED_PRODUCT_CATEGORY('part',' ',(#5530));
#5550=PRODUCT_DEFINITION_FORMATION_WITH_SPECIFIED_SOURCE('','',#5530,
.BOUGHT.);
#5560=PRODUCT_DEFINITION('',' ',#5550,#5520);
#5570=PRODUCT_DEFINITION_SHAPE('','',#5560);
#5580=DIMENSIONAL_EXPONENTS(1.,0.,0.,0.,0.,0.,0.);
#5590=DIMENSIONAL_EXPONENTS(0.,0.,0.,0.,0.,0.,0.);
#5600=DIMENSIONAL_EXPONENTS(0.,0.,0.,0.,0.,0.,0.);
#5610=(LENGTH_UNIT() NAMED_UNIT(*) SI_UNIT(.MILLI.,.METRE.));
#5620=(NAMED_UNIT(*) PLANE_ANGLE_UNIT() SI_UNIT($,.RADIAN.));
#5630=(NAMED_UNIT(*) SI_UNIT($,.STERADIAN.) SOLID_ANGLE_UNIT());
#5640=(GEOMETRIC_REPRESENTATION_CONTEXT(3) 
GLOBAL_UNCERTAINTY_ASSIGNED_CONTEXT((#5650)) 
GLOBAL_UNIT_ASSIGNED_CONTEXT((#5610,#5620,#5630)) REPRESENTATION_CONTEXT
('',''));
#5650=UNCERTAINTY_MEASURE_WITH_UNIT(LENGTH_MEASURE(1.E-6),#5610,
'distance_accuracy_value','maximum gap value');
#5660=ADVANCED_BREP_SHAPE_REPRESENTATION('',(#5480,#5440),#5640);
#5670=SHAPE_DEFINITION_REPRESENTATION(#5570,#5660);
#5680=COLOUR_RGB('',0.600000023841858,0.600000023841858,
0.600000023841858);
#5690=FILL_AREA_STYLE_COLOUR('',#5680);
#5700=FILL_AREA_STYLE('',(#5690));
#5710=SURFACE_STYLE_FILL_AREA(#5700);
#5720=SURFACE_SIDE_STYLE('',(#5710));
#5730=SURFACE_STYLE_USAGE(.BOTH.,#5720);
#5740=PRESENTATION_STYLE_ASSIGNMENT((#5730));
#5750=STYLED_ITEM('',(#5740),#5440);
#5760=OVER_RIDING_STYLED_ITEM('',(#2130),#2060,#5750);
#5770=OVER_RIDING_STYLED_ITEM('',(#3340),#3270,#5750);
#5780=OVER_RIDING_STYLED_ITEM('',(#4450),#4380,#5750);
#5790=OVER_RIDING_STYLED_ITEM('',(#4900),#4830,#5750);
#5800=DRAUGHTING_MODEL('',(#5750,#5760,#5770,#5780,#5790),#5640);
ENDSEC;
END-ISO-10303-21;
