ISO-10303-21;
HEADER;
FILE_DESCRIPTION(('Creo Elements/Direct Modeling STEP Export'),'2;1');
FILE_NAME('1406H-140.stp','2017-11-13T 8:44:10',(''),(''),
'Creo Elements/Direct Modeling STEP processor for AP214 (Solid Model)',
'Creo Elements/Direct Modeling 20.0  12-Nov-2016 (C) Parametric Technolo
gy GmbH','');
FILE_SCHEMA(('AUTOMOTIVE_DESIGN { 1 0 10303 214 1 1 1 1 }'));
ENDSEC;
DATA;
#10=CARTESIAN_POINT('',(0.,26.35,0.));
#20=DIRECTION('',(0.,0.,1.));
#30=DIRECTION('',(1.,0.,0.));
#40=AXIS2_PLACEMENT_3D('',#10,#20,#30);
#50=CYLINDRICAL_SURFACE('',#40,6.35);
#60=CARTESIAN_POINT('',(-6.35,26.35,0.));
#70=DIRECTION('',(0.,0.,1.));
#80=VECTOR('',#70,1.);
#90=LINE('',#60,#80);
#100=CARTESIAN_POINT('',(-6.35,26.35,-64.));
#110=VERTEX_POINT('',#100);
#120=CARTESIAN_POINT('',(-6.35,26.35,64.));
#130=VERTEX_POINT('',#120);
#140=EDGE_CURVE('',#110,#130,#90,.T.);
#150=ORIENTED_EDGE('',*,*,#140,.T.);
#160=CARTESIAN_POINT('',(-4.44089209850063E-16,26.35,-64.));
#170=DIRECTION('',(0.,0.707106781186548,0.707106781186548));
#180=DIRECTION('',(0.,-0.707106781186548,0.707106781186548));
#190=AXIS2_PLACEMENT_3D('',#160,#170,#180);
#200=ELLIPSE('',#190,8.98025612106916,6.35);
#210=CARTESIAN_POINT('',(-1.66582913715869E-15,32.7,-70.35));
#220=VERTEX_POINT('',#210);
#230=EDGE_CURVE('',#220,#110,#200,.T.);
#240=ORIENTED_EDGE('',*,*,#230,.T.);
#250=CARTESIAN_POINT('',(6.35,26.35,-64.));
#260=VERTEX_POINT('',#250);
#270=EDGE_CURVE('',#260,#220,#200,.T.);
#280=ORIENTED_EDGE('',*,*,#270,.T.);
#290=CARTESIAN_POINT('',(6.35,26.35,0.));
#300=DIRECTION('',(0.,0.,1.));
#310=VECTOR('',#300,1.);
#320=LINE('',#290,#310);
#330=CARTESIAN_POINT('',(6.35,26.35,64.));
#340=VERTEX_POINT('',#330);
#350=EDGE_CURVE('',#260,#340,#320,.T.);
#360=ORIENTED_EDGE('',*,*,#350,.F.);
#370=CARTESIAN_POINT('',(-4.44089209850063E-16,26.35,64.));
#380=DIRECTION('',(0.,-0.707106781186548,0.707106781186548));
#390=DIRECTION('',(0.,0.707106781186548,0.707106781186548));
#400=AXIS2_PLACEMENT_3D('',#370,#380,#390);
#410=ELLIPSE('',#400,8.98025612106916,6.35);
#420=CARTESIAN_POINT('',(-8.88178419700125E-16,32.7,70.35));
#430=VERTEX_POINT('',#420);
#440=EDGE_CURVE('',#340,#430,#410,.T.);
#450=ORIENTED_EDGE('',*,*,#440,.F.);
#460=EDGE_CURVE('',#430,#130,#410,.T.);
#470=ORIENTED_EDGE('',*,*,#460,.F.);
#480=EDGE_LOOP('',(#470,#450,#360,#280,#240,#150));
#490=FACE_OUTER_BOUND('',#480,.T.);
#500=ADVANCED_FACE('',(#490),#50,.T.);
#510=CARTESIAN_POINT('',(0.,0.,-16.));
#520=DIRECTION('',(0.,-1.,0.));
#530=DIRECTION('',(0.,0.,1.));
#540=AXIS2_PLACEMENT_3D('',#510,#520,#530);
#550=PLANE('',#540);
#560=CARTESIAN_POINT('',(0.,0.,-64.));
#570=DIRECTION('',(0.,-1.,0.));
#580=DIRECTION('',(1.,0.,0.));
#590=AXIS2_PLACEMENT_3D('',#560,#570,#580);
#600=CIRCLE('',#590,1.65);
#610=CARTESIAN_POINT('',(-1.65,0.,-64.));
#620=VERTEX_POINT('',#610);
#630=CARTESIAN_POINT('',(1.65,0.,-64.));
#640=VERTEX_POINT('',#630);
#650=EDGE_CURVE('',#620,#640,#600,.T.);
#660=ORIENTED_EDGE('',*,*,#650,.F.);
#670=EDGE_CURVE('',#640,#620,#600,.T.);
#680=ORIENTED_EDGE('',*,*,#670,.F.);
#690=EDGE_LOOP('',(#680,#660));
#700=FACE_BOUND('',#690,.T.);
#710=CARTESIAN_POINT('',(-8.88178419700125E-16,0.,-64.));
#720=DIRECTION('',(0.,-1.,0.));
#730=DIRECTION('',(0.,0.,1.));
#740=AXIS2_PLACEMENT_3D('',#710,#720,#730);
#750=CIRCLE('',#740,6.35);
#760=CARTESIAN_POINT('',(-1.66582913715869E-15,0.,-70.35));
#770=VERTEX_POINT('',#760);
#780=CARTESIAN_POINT('',(-8.88178419700125E-16,0.,-57.65));
#790=VERTEX_POINT('',#780);
#800=EDGE_CURVE('',#770,#790,#750,.T.);
#810=ORIENTED_EDGE('',*,*,#800,.T.);
#820=EDGE_CURVE('',#790,#770,#750,.T.);
#830=ORIENTED_EDGE('',*,*,#820,.T.);
#840=EDGE_LOOP('',(#830,#810));
#850=FACE_OUTER_BOUND('',#840,.T.);
#860=ADVANCED_FACE('',(#700,#850),#550,.T.);
#870=CARTESIAN_POINT('',(-8.88178419700125E-16,0.,-64.));
#880=DIRECTION('',(0.,-1.,0.));
#890=DIRECTION('',(0.,0.,1.));
#900=AXIS2_PLACEMENT_3D('',#870,#880,#890);
#910=CYLINDRICAL_SURFACE('',#900,6.35);
#920=ORIENTED_EDGE('',*,*,#270,.F.);
#930=CARTESIAN_POINT('',(-1.66582913715869E-15,0.,-70.35));
#940=DIRECTION('',(0.,-1.,0.));
#950=VECTOR('',#940,1.);
#960=LINE('',#930,#950);
#970=EDGE_CURVE('',#220,#770,#960,.T.);
#980=ORIENTED_EDGE('',*,*,#970,.F.);
#990=ORIENTED_EDGE('',*,*,#800,.F.);
#1000=CARTESIAN_POINT('',(-8.88178419700125E-16,0.,-57.65));
#1010=DIRECTION('',(0.,-1.,0.));
#1020=VECTOR('',#1010,1.);
#1030=LINE('',#1000,#1020);
#1040=CARTESIAN_POINT('',(-8.88178419700125E-16,20.,-57.65));
#1050=VERTEX_POINT('',#1040);
#1060=EDGE_CURVE('',#1050,#790,#1030,.T.);
#1070=ORIENTED_EDGE('',*,*,#1060,.T.);
#1080=EDGE_CURVE('',#1050,#260,#200,.T.);
#1090=ORIENTED_EDGE('',*,*,#1080,.F.);
#1100=EDGE_LOOP('',(#1090,#1070,#990,#980,#920));
#1110=FACE_OUTER_BOUND('',#1100,.T.);
#1120=ADVANCED_FACE('',(#1110),#910,.T.);
#1130=CARTESIAN_POINT('',(-8.88178419700125E-16,0.,64.));
#1140=DIRECTION('',(0.,-1.,0.));
#1150=DIRECTION('',(0.,0.,1.));
#1160=AXIS2_PLACEMENT_3D('',#1130,#1140,#1150);
#1170=CYLINDRICAL_SURFACE('',#1160,6.35);
#1180=CARTESIAN_POINT('',(-1.66582913715869E-15,0.,57.65));
#1190=DIRECTION('',(0.,-1.,0.));
#1200=VECTOR('',#1190,1.);
#1210=LINE('',#1180,#1200);
#1220=CARTESIAN_POINT('',(-1.66582913715869E-15,20.,57.65));
#1230=VERTEX_POINT('',#1220);
#1240=CARTESIAN_POINT('',(-1.66582913715869E-15,0.,57.65));
#1250=VERTEX_POINT('',#1240);
#1260=EDGE_CURVE('',#1230,#1250,#1210,.T.);
#1270=ORIENTED_EDGE('',*,*,#1260,.T.);
#1280=EDGE_CURVE('',#130,#1230,#410,.T.);
#1290=ORIENTED_EDGE('',*,*,#1280,.T.);
#1300=ORIENTED_EDGE('',*,*,#460,.T.);
#1310=CARTESIAN_POINT('',(-8.88178419700125E-16,0.,70.35));
#1320=DIRECTION('',(0.,-1.,0.));
#1330=VECTOR('',#1320,1.);
#1340=LINE('',#1310,#1330);
#1350=CARTESIAN_POINT('',(-8.88178419700125E-16,0.,70.35));
#1360=VERTEX_POINT('',#1350);
#1370=EDGE_CURVE('',#430,#1360,#1340,.T.);
#1380=ORIENTED_EDGE('',*,*,#1370,.F.);
#1390=CARTESIAN_POINT('',(-8.88178419700125E-16,0.,64.));
#1400=DIRECTION('',(0.,-1.,0.));
#1410=DIRECTION('',(0.,0.,1.));
#1420=AXIS2_PLACEMENT_3D('',#1390,#1400,#1410);
#1430=CIRCLE('',#1420,6.35);
#1440=EDGE_CURVE('',#1360,#1250,#1430,.T.);
#1450=ORIENTED_EDGE('',*,*,#1440,.F.);
#1460=EDGE_LOOP('',(#1450,#1380,#1300,#1290,#1270));
#1470=FACE_OUTER_BOUND('',#1460,.T.);
#1480=ADVANCED_FACE('',(#1470),#1170,.T.);
#1490=CARTESIAN_POINT('',(0.,0.,16.));
#1500=DIRECTION('',(0.,-1.,0.));
#1510=DIRECTION('',(0.,0.,1.));
#1520=AXIS2_PLACEMENT_3D('',#1490,#1500,#1510);
#1530=PLANE('',#1520);
#1540=CARTESIAN_POINT('',(0.,0.,64.));
#1550=DIRECTION('',(0.,-1.,0.));
#1560=DIRECTION('',(1.,0.,0.));
#1570=AXIS2_PLACEMENT_3D('',#1540,#1550,#1560);
#1580=CIRCLE('',#1570,1.65);
#1590=CARTESIAN_POINT('',(1.65,0.,64.));
#1600=VERTEX_POINT('',#1590);
#1610=CARTESIAN_POINT('',(-1.65,0.,64.));
#1620=VERTEX_POINT('',#1610);
#1630=EDGE_CURVE('',#1600,#1620,#1580,.T.);
#1640=ORIENTED_EDGE('',*,*,#1630,.F.);
#1650=EDGE_CURVE('',#1620,#1600,#1580,.T.);
#1660=ORIENTED_EDGE('',*,*,#1650,.F.);
#1670=EDGE_LOOP('',(#1660,#1640));
#1680=FACE_BOUND('',#1670,.T.);
#1690=EDGE_CURVE('',#1250,#1360,#1430,.T.);
#1700=ORIENTED_EDGE('',*,*,#1690,.T.);
#1710=ORIENTED_EDGE('',*,*,#1440,.T.);
#1720=EDGE_LOOP('',(#1710,#1700));
#1730=FACE_OUTER_BOUND('',#1720,.T.);
#1740=ADVANCED_FACE('',(#1680,#1730),#1530,.T.);
#1750=CARTESIAN_POINT('',(0.,3.5,64.));
#1760=DIRECTION('',(0.,-1.,0.));
#1770=DIRECTION('',(1.,0.,0.));
#1780=AXIS2_PLACEMENT_3D('',#1750,#1760,#1770);
#1790=CYLINDRICAL_SURFACE('',#1780,1.65);
#1800=CARTESIAN_POINT('',(-1.65,3.5,64.));
#1810=DIRECTION('',(0.,-1.,0.));
#1820=VECTOR('',#1810,1.);
#1830=LINE('',#1800,#1820);
#1840=CARTESIAN_POINT('',(-1.65,7.,64.));
#1850=VERTEX_POINT('',#1840);
#1860=EDGE_CURVE('',#1850,#1620,#1830,.T.);
#1870=ORIENTED_EDGE('',*,*,#1860,.T.);
#1880=CARTESIAN_POINT('',(0.,7.,64.));
#1890=DIRECTION('',(0.,1.,0.));
#1900=DIRECTION('',(1.,0.,0.));
#1910=AXIS2_PLACEMENT_3D('',#1880,#1890,#1900);
#1920=CIRCLE('',#1910,1.65);
#1930=CARTESIAN_POINT('',(1.65,7.,64.));
#1940=VERTEX_POINT('',#1930);
#1950=EDGE_CURVE('',#1940,#1850,#1920,.T.);
#1960=ORIENTED_EDGE('',*,*,#1950,.T.);
#1970=CARTESIAN_POINT('',(1.65,3.5,64.));
#1980=DIRECTION('',(0.,-1.,0.));
#1990=VECTOR('',#1980,1.);
#2000=LINE('',#1970,#1990);
#2010=EDGE_CURVE('',#1940,#1600,#2000,.T.);
#2020=ORIENTED_EDGE('',*,*,#2010,.F.);
#2030=ORIENTED_EDGE('',*,*,#1650,.T.);
#2040=EDGE_LOOP('',(#2030,#2020,#1960,#1870));
#2050=FACE_OUTER_BOUND('',#2040,.T.);
#2060=ADVANCED_FACE('',(#2050),#1790,.F.);
#2070=COLOUR_RGB('',1.,0.,0.);
#2080=FILL_AREA_STYLE_COLOUR('',#2070);
#2090=FILL_AREA_STYLE('',(#2080));
#2100=SURFACE_STYLE_FILL_AREA(#2090);
#2110=SURFACE_SIDE_STYLE('',(#2100));
#2120=SURFACE_STYLE_USAGE(.BOTH.,#2110);
#2130=PRESENTATION_STYLE_ASSIGNMENT((#2120));
#2140=CARTESIAN_POINT('',(1.6425,7.,64.));
#2150=DIRECTION('',(0.,-1.,0.));
#2160=DIRECTION('',(1.,0.,0.));
#2170=AXIS2_PLACEMENT_3D('',#2140,#2150,#2160);
#2180=PLANE('',#2170);
#2190=CARTESIAN_POINT('',(0.,7.,64.));
#2200=DIRECTION('',(0.,1.,0.));
#2210=DIRECTION('',(1.,0.,0.));
#2220=AXIS2_PLACEMENT_3D('',#2190,#2200,#2210);
#2230=CIRCLE('',#2220,1.635);
#2240=CARTESIAN_POINT('',(1.635,7.,64.));
#2250=VERTEX_POINT('',#2240);
#2260=CARTESIAN_POINT('',(-1.635,7.,64.));
#2270=VERTEX_POINT('',#2260);
#2280=EDGE_CURVE('',#2250,#2270,#2230,.T.);
#2290=ORIENTED_EDGE('',*,*,#2280,.T.);
#2300=EDGE_CURVE('',#2270,#2250,#2230,.T.);
#2310=ORIENTED_EDGE('',*,*,#2300,.T.);
#2320=EDGE_LOOP('',(#2310,#2290));
#2330=FACE_BOUND('',#2320,.T.);
#2340=ORIENTED_EDGE('',*,*,#1950,.F.);
#2350=EDGE_CURVE('',#1850,#1940,#1920,.T.);
#2360=ORIENTED_EDGE('',*,*,#2350,.F.);
#2370=EDGE_LOOP('',(#2360,#2340));
#2380=FACE_OUTER_BOUND('',#2370,.T.);
#2390=ADVANCED_FACE('',(#2330,#2380),#2180,.T.);
#2400=CARTESIAN_POINT('',(0.,8.,64.));
#2410=DIRECTION('',(0.,-1.,0.));
#2420=DIRECTION('',(1.,0.,0.));
#2430=AXIS2_PLACEMENT_3D('',#2400,#2410,#2420);
#2440=CYLINDRICAL_SURFACE('',#2430,1.635);
#2450=CARTESIAN_POINT('',(1.635,8.,64.));
#2460=DIRECTION('',(0.,-1.,0.));
#2470=VECTOR('',#2460,1.);
#2480=LINE('',#2450,#2470);
#2490=CARTESIAN_POINT('',(1.635,9.,64.));
#2500=VERTEX_POINT('',#2490);
#2510=EDGE_CURVE('',#2500,#2250,#2480,.T.);
#2520=ORIENTED_EDGE('',*,*,#2510,.F.);
#2530=ORIENTED_EDGE('',*,*,#2280,.F.);
#2540=CARTESIAN_POINT('',(-1.635,8.,64.));
#2550=DIRECTION('',(0.,-1.,0.));
#2560=VECTOR('',#2550,1.);
#2570=LINE('',#2540,#2560);
#2580=CARTESIAN_POINT('',(-1.635,9.,64.));
#2590=VERTEX_POINT('',#2580);
#2600=EDGE_CURVE('',#2590,#2270,#2570,.T.);
#2610=ORIENTED_EDGE('',*,*,#2600,.T.);
#2620=CARTESIAN_POINT('',(0.,9.,64.));
#2630=DIRECTION('',(0.,1.,0.));
#2640=DIRECTION('',(1.,0.,0.));
#2650=AXIS2_PLACEMENT_3D('',#2620,#2630,#2640);
#2660=CIRCLE('',#2650,1.635);
#2670=EDGE_CURVE('',#2500,#2590,#2660,.T.);
#2680=ORIENTED_EDGE('',*,*,#2670,.T.);
#2690=EDGE_LOOP('',(#2680,#2610,#2530,#2520));
#2700=FACE_OUTER_BOUND('',#2690,.T.);
#2710=ADVANCED_FACE('',(#2700),#2440,.F.);
#2720=CARTESIAN_POINT('',(0.,9.,64.));
#2730=DIRECTION('',(0.,-1.,0.));
#2740=DIRECTION('',(-1.,-0.,0.));
#2750=AXIS2_PLACEMENT_3D('',#2720,#2730,#2740);
#2760=CONICAL_SURFACE('',#2750,1.635,1.02974425867666);
#2770=CARTESIAN_POINT('',(-1.635,9.,64.));
#2780=DIRECTION('',(-0.857167300702115,-0.51503807491005,0.));
#2790=VECTOR('',#2780,1.90744560444706);
#2800=LINE('',#2770,#2790);
#2810=CARTESIAN_POINT('',(-4.44089209850063E-16,9.98240711211005,64.));
#2820=VERTEX_POINT('',#2810);
#2830=EDGE_CURVE('',#2820,#2590,#2800,.T.);
#2840=ORIENTED_EDGE('',*,*,#2830,.F.);
#2850=EDGE_CURVE('',#2590,#2500,#2660,.T.);
#2860=ORIENTED_EDGE('',*,*,#2850,.F.);
#2870=CARTESIAN_POINT('',(1.635,9.,64.));
#2880=DIRECTION('',(0.857167300702115,-0.51503807491005,0.));
#2890=VECTOR('',#2880,1.90744560444706);
#2900=LINE('',#2870,#2890);
#2910=EDGE_CURVE('',#2820,#2500,#2900,.T.);
#2920=ORIENTED_EDGE('',*,*,#2910,.T.);
#2930=EDGE_LOOP('',(#2920,#2860,#2840));
#2940=FACE_OUTER_BOUND('',#2930,.T.);
#2950=ADVANCED_FACE('',(#2940),#2760,.F.);
#2960=CARTESIAN_POINT('',(0.,3.5,-64.));
#2970=DIRECTION('',(0.,-1.,0.));
#2980=DIRECTION('',(1.,0.,0.));
#2990=AXIS2_PLACEMENT_3D('',#2960,#2970,#2980);
#3000=CYLINDRICAL_SURFACE('',#2990,1.65);
#3010=CARTESIAN_POINT('',(1.65,3.5,-64.));
#3020=DIRECTION('',(0.,-1.,0.));
#3030=VECTOR('',#3020,1.);
#3040=LINE('',#3010,#3030);
#3050=CARTESIAN_POINT('',(1.65,7.,-64.));
#3060=VERTEX_POINT('',#3050);
#3070=EDGE_CURVE('',#3060,#640,#3040,.T.);
#3080=ORIENTED_EDGE('',*,*,#3070,.T.);
#3090=CARTESIAN_POINT('',(0.,7.,-64.));
#3100=DIRECTION('',(0.,1.,0.));
#3110=DIRECTION('',(1.,0.,0.));
#3120=AXIS2_PLACEMENT_3D('',#3090,#3100,#3110);
#3130=CIRCLE('',#3120,1.65);
#3140=CARTESIAN_POINT('',(-1.65,7.,-64.));
#3150=VERTEX_POINT('',#3140);
#3160=EDGE_CURVE('',#3150,#3060,#3130,.T.);
#3170=ORIENTED_EDGE('',*,*,#3160,.T.);
#3180=CARTESIAN_POINT('',(-1.65,3.5,-64.));
#3190=DIRECTION('',(0.,-1.,0.));
#3200=VECTOR('',#3190,1.);
#3210=LINE('',#3180,#3200);
#3220=EDGE_CURVE('',#3150,#620,#3210,.T.);
#3230=ORIENTED_EDGE('',*,*,#3220,.F.);
#3240=ORIENTED_EDGE('',*,*,#670,.T.);
#3250=EDGE_LOOP('',(#3240,#3230,#3170,#3080));
#3260=FACE_OUTER_BOUND('',#3250,.T.);
#3270=ADVANCED_FACE('',(#3260),#3000,.F.);
#3280=COLOUR_RGB('',1.,0.,0.);
#3290=FILL_AREA_STYLE_COLOUR('',#3280);
#3300=FILL_AREA_STYLE('',(#3290));
#3310=SURFACE_STYLE_FILL_AREA(#3300);
#3320=SURFACE_SIDE_STYLE('',(#3310));
#3330=SURFACE_STYLE_USAGE(.BOTH.,#3320);
#3340=PRESENTATION_STYLE_ASSIGNMENT((#3330));
#3350=CARTESIAN_POINT('',(1.6425,7.,-64.));
#3360=DIRECTION('',(0.,-1.,0.));
#3370=DIRECTION('',(1.,0.,0.));
#3380=AXIS2_PLACEMENT_3D('',#3350,#3360,#3370);
#3390=PLANE('',#3380);
#3400=CARTESIAN_POINT('',(0.,7.,-64.));
#3410=DIRECTION('',(0.,1.,0.));
#3420=DIRECTION('',(1.,0.,0.));
#3430=AXIS2_PLACEMENT_3D('',#3400,#3410,#3420);
#3440=CIRCLE('',#3430,1.635);
#3450=CARTESIAN_POINT('',(1.635,7.,-64.));
#3460=VERTEX_POINT('',#3450);
#3470=CARTESIAN_POINT('',(-1.635,7.,-64.));
#3480=VERTEX_POINT('',#3470);
#3490=EDGE_CURVE('',#3460,#3480,#3440,.T.);
#3500=ORIENTED_EDGE('',*,*,#3490,.T.);
#3510=EDGE_CURVE('',#3480,#3460,#3440,.T.);
#3520=ORIENTED_EDGE('',*,*,#3510,.T.);
#3530=EDGE_LOOP('',(#3520,#3500));
#3540=FACE_BOUND('',#3530,.T.);
#3550=EDGE_CURVE('',#3060,#3150,#3130,.T.);
#3560=ORIENTED_EDGE('',*,*,#3550,.F.);
#3570=ORIENTED_EDGE('',*,*,#3160,.F.);
#3580=EDGE_LOOP('',(#3570,#3560));
#3590=FACE_OUTER_BOUND('',#3580,.T.);
#3600=ADVANCED_FACE('',(#3540,#3590),#3390,.T.);
#3610=CARTESIAN_POINT('',(0.,8.,-64.));
#3620=DIRECTION('',(0.,-1.,0.));
#3630=DIRECTION('',(1.,0.,0.));
#3640=AXIS2_PLACEMENT_3D('',#3610,#3620,#3630);
#3650=CYLINDRICAL_SURFACE('',#3640,1.635);
#3660=CARTESIAN_POINT('',(1.635,8.,-64.));
#3670=DIRECTION('',(0.,-1.,0.));
#3680=VECTOR('',#3670,1.);
#3690=LINE('',#3660,#3680);
#3700=CARTESIAN_POINT('',(1.635,9.,-64.));
#3710=VERTEX_POINT('',#3700);
#3720=EDGE_CURVE('',#3710,#3460,#3690,.T.);
#3730=ORIENTED_EDGE('',*,*,#3720,.T.);
#3740=CARTESIAN_POINT('',(0.,9.,-64.));
#3750=DIRECTION('',(0.,1.,0.));
#3760=DIRECTION('',(1.,0.,0.));
#3770=AXIS2_PLACEMENT_3D('',#3740,#3750,#3760);
#3780=CIRCLE('',#3770,1.635);
#3790=CARTESIAN_POINT('',(-1.635,9.,-64.));
#3800=VERTEX_POINT('',#3790);
#3810=EDGE_CURVE('',#3800,#3710,#3780,.T.);
#3820=ORIENTED_EDGE('',*,*,#3810,.T.);
#3830=CARTESIAN_POINT('',(-1.635,8.,-64.));
#3840=DIRECTION('',(0.,-1.,0.));
#3850=VECTOR('',#3840,1.);
#3860=LINE('',#3830,#3850);
#3870=EDGE_CURVE('',#3800,#3480,#3860,.T.);
#3880=ORIENTED_EDGE('',*,*,#3870,.F.);
#3890=ORIENTED_EDGE('',*,*,#3510,.F.);
#3900=EDGE_LOOP('',(#3890,#3880,#3820,#3730));
#3910=FACE_OUTER_BOUND('',#3900,.T.);
#3920=ADVANCED_FACE('',(#3910),#3650,.F.);
#3930=CARTESIAN_POINT('',(0.,9.,-64.));
#3940=DIRECTION('',(0.,-1.,0.));
#3950=DIRECTION('',(-1.,-0.,0.));
#3960=AXIS2_PLACEMENT_3D('',#3930,#3940,#3950);
#3970=CONICAL_SURFACE('',#3960,1.635,1.02974425867666);
#3980=CARTESIAN_POINT('',(-1.635,9.,-64.));
#3990=DIRECTION('',(-0.857167300702115,-0.51503807491005,0.));
#4000=VECTOR('',#3990,1.90744560444706);
#4010=LINE('',#3980,#4000);
#4020=CARTESIAN_POINT('',(-4.44089209850063E-16,9.98240711211005,-64.));
#4030=VERTEX_POINT('',#4020);
#4040=EDGE_CURVE('',#4030,#3800,#4010,.T.);
#4050=ORIENTED_EDGE('',*,*,#4040,.F.);
#4060=ORIENTED_EDGE('',*,*,#3810,.F.);
#4070=CARTESIAN_POINT('',(1.635,9.,-64.));
#4080=DIRECTION('',(0.857167300702115,-0.51503807491005,0.));
#4090=VECTOR('',#4080,1.90744560444706);
#4100=LINE('',#4070,#4090);
#4110=EDGE_CURVE('',#4030,#3710,#4100,.T.);
#4120=ORIENTED_EDGE('',*,*,#4110,.T.);
#4130=EDGE_LOOP('',(#4120,#4060,#4050));
#4140=FACE_OUTER_BOUND('',#4130,.T.);
#4150=ADVANCED_FACE('',(#4140),#3970,.F.);
#4160=CARTESIAN_POINT('',(0.,26.35,0.));
#4170=DIRECTION('',(0.,0.,1.));
#4180=DIRECTION('',(1.,0.,0.));
#4190=AXIS2_PLACEMENT_3D('',#4160,#4170,#4180);
#4200=CYLINDRICAL_SURFACE('',#4190,6.35);
#4210=ORIENTED_EDGE('',*,*,#1280,.F.);
#4220=EDGE_CURVE('',#1230,#340,#410,.T.);
#4230=ORIENTED_EDGE('',*,*,#4220,.F.);
#4240=ORIENTED_EDGE('',*,*,#350,.T.);
#4250=ORIENTED_EDGE('',*,*,#1080,.T.);
#4260=EDGE_CURVE('',#110,#1050,#200,.T.);
#4270=ORIENTED_EDGE('',*,*,#4260,.T.);
#4280=ORIENTED_EDGE('',*,*,#140,.F.);
#4290=EDGE_LOOP('',(#4280,#4270,#4250,#4240,#4230,#4210));
#4300=FACE_OUTER_BOUND('',#4290,.T.);
#4310=ADVANCED_FACE('',(#4300),#4200,.T.);
#4320=CARTESIAN_POINT('',(0.,3.5,-64.));
#4330=DIRECTION('',(0.,-1.,0.));
#4340=DIRECTION('',(1.,0.,0.));
#4350=AXIS2_PLACEMENT_3D('',#4320,#4330,#4340);
#4360=CYLINDRICAL_SURFACE('',#4350,1.65);
#4370=ORIENTED_EDGE('',*,*,#650,.T.);
#4380=ORIENTED_EDGE('',*,*,#3220,.T.);
#4390=ORIENTED_EDGE('',*,*,#3550,.T.);
#4400=ORIENTED_EDGE('',*,*,#3070,.F.);
#4410=EDGE_LOOP('',(#4400,#4390,#4380,#4370));
#4420=FACE_OUTER_BOUND('',#4410,.T.);
#4430=ADVANCED_FACE('',(#4420),#4360,.F.);
#4440=COLOUR_RGB('',1.,0.,0.);
#4450=FILL_AREA_STYLE_COLOUR('',#4440);
#4460=FILL_AREA_STYLE('',(#4450));
#4470=SURFACE_STYLE_FILL_AREA(#4460);
#4480=SURFACE_SIDE_STYLE('',(#4470));
#4490=SURFACE_STYLE_USAGE(.BOTH.,#4480);
#4500=PRESENTATION_STYLE_ASSIGNMENT((#4490));
#4510=CARTESIAN_POINT('',(0.,3.5,64.));
#4520=DIRECTION('',(0.,-1.,0.));
#4530=DIRECTION('',(1.,0.,0.));
#4540=AXIS2_PLACEMENT_3D('',#4510,#4520,#4530);
#4550=CYLINDRICAL_SURFACE('',#4540,1.65);
#4560=ORIENTED_EDGE('',*,*,#1860,.F.);
#4570=ORIENTED_EDGE('',*,*,#1630,.T.);
#4580=ORIENTED_EDGE('',*,*,#2010,.T.);
#4590=ORIENTED_EDGE('',*,*,#2350,.T.);
#4600=EDGE_LOOP('',(#4590,#4580,#4570,#4560));
#4610=FACE_OUTER_BOUND('',#4600,.T.);
#4620=ADVANCED_FACE('',(#4610),#4550,.F.);
#4630=COLOUR_RGB('',1.,0.,0.);
#4640=FILL_AREA_STYLE_COLOUR('',#4630);
#4650=FILL_AREA_STYLE('',(#4640));
#4660=SURFACE_STYLE_FILL_AREA(#4650);
#4670=SURFACE_SIDE_STYLE('',(#4660));
#4680=SURFACE_STYLE_USAGE(.BOTH.,#4670);
#4690=PRESENTATION_STYLE_ASSIGNMENT((#4680));
#4700=CARTESIAN_POINT('',(0.,8.,-64.));
#4710=DIRECTION('',(0.,-1.,0.));
#4720=DIRECTION('',(1.,0.,0.));
#4730=AXIS2_PLACEMENT_3D('',#4700,#4710,#4720);
#4740=CYLINDRICAL_SURFACE('',#4730,1.635);
#4750=ORIENTED_EDGE('',*,*,#3490,.F.);
#4760=ORIENTED_EDGE('',*,*,#3870,.T.);
#4770=EDGE_CURVE('',#3710,#3800,#3780,.T.);
#4780=ORIENTED_EDGE('',*,*,#4770,.T.);
#4790=ORIENTED_EDGE('',*,*,#3720,.F.);
#4800=EDGE_LOOP('',(#4790,#4780,#4760,#4750));
#4810=FACE_OUTER_BOUND('',#4800,.T.);
#4820=ADVANCED_FACE('',(#4810),#4740,.F.);
#4830=CARTESIAN_POINT('',(0.,9.,-64.));
#4840=DIRECTION('',(0.,-1.,0.));
#4850=DIRECTION('',(-1.,-0.,0.));
#4860=AXIS2_PLACEMENT_3D('',#4830,#4840,#4850);
#4870=CONICAL_SURFACE('',#4860,1.635,1.02974425867666);
#4880=ORIENTED_EDGE('',*,*,#4770,.F.);
#4890=ORIENTED_EDGE('',*,*,#4040,.T.);
#4900=ORIENTED_EDGE('',*,*,#4110,.F.);
#4910=EDGE_LOOP('',(#4900,#4890,#4880));
#4920=FACE_OUTER_BOUND('',#4910,.T.);
#4930=ADVANCED_FACE('',(#4920),#4870,.F.);
#4940=CARTESIAN_POINT('',(0.,8.,64.));
#4950=DIRECTION('',(0.,-1.,0.));
#4960=DIRECTION('',(1.,0.,0.));
#4970=AXIS2_PLACEMENT_3D('',#4940,#4950,#4960);
#4980=CYLINDRICAL_SURFACE('',#4970,1.635);
#4990=ORIENTED_EDGE('',*,*,#2510,.T.);
#5000=ORIENTED_EDGE('',*,*,#2850,.T.);
#5010=ORIENTED_EDGE('',*,*,#2600,.F.);
#5020=ORIENTED_EDGE('',*,*,#2300,.F.);
#5030=EDGE_LOOP('',(#5020,#5010,#5000,#4990));
#5040=FACE_OUTER_BOUND('',#5030,.T.);
#5050=ADVANCED_FACE('',(#5040),#4980,.F.);
#5060=CARTESIAN_POINT('',(-8.88178419700125E-16,0.,-64.));
#5070=DIRECTION('',(0.,-1.,0.));
#5080=DIRECTION('',(0.,0.,1.));
#5090=AXIS2_PLACEMENT_3D('',#5060,#5070,#5080);
#5100=CYLINDRICAL_SURFACE('',#5090,6.35);
#5110=ORIENTED_EDGE('',*,*,#970,.T.);
#5120=ORIENTED_EDGE('',*,*,#230,.F.);
#5130=ORIENTED_EDGE('',*,*,#4260,.F.);
#5140=ORIENTED_EDGE('',*,*,#1060,.F.);
#5150=ORIENTED_EDGE('',*,*,#820,.F.);
#5160=EDGE_LOOP('',(#5150,#5140,#5130,#5120,#5110));
#5170=FACE_OUTER_BOUND('',#5160,.T.);
#5180=ADVANCED_FACE('',(#5170),#5100,.T.);
#5190=CARTESIAN_POINT('',(0.,9.,64.));
#5200=DIRECTION('',(0.,-1.,0.));
#5210=DIRECTION('',(-1.,-0.,0.));
#5220=AXIS2_PLACEMENT_3D('',#5190,#5200,#5210);
#5230=CONICAL_SURFACE('',#5220,1.635,1.02974425867666);
#5240=ORIENTED_EDGE('',*,*,#2830,.T.);
#5250=ORIENTED_EDGE('',*,*,#2910,.F.);
#5260=ORIENTED_EDGE('',*,*,#2670,.F.);
#5270=EDGE_LOOP('',(#5260,#5250,#5240));
#5280=FACE_OUTER_BOUND('',#5270,.T.);
#5290=ADVANCED_FACE('',(#5280),#5230,.F.);
#5300=CARTESIAN_POINT('',(-8.88178419700125E-16,0.,64.));
#5310=DIRECTION('',(0.,-1.,0.));
#5320=DIRECTION('',(0.,0.,1.));
#5330=AXIS2_PLACEMENT_3D('',#5300,#5310,#5320);
#5340=CYLINDRICAL_SURFACE('',#5330,6.35);
#5350=ORIENTED_EDGE('',*,*,#1260,.F.);
#5360=ORIENTED_EDGE('',*,*,#1690,.F.);
#5370=ORIENTED_EDGE('',*,*,#1370,.T.);
#5380=ORIENTED_EDGE('',*,*,#440,.T.);
#5390=ORIENTED_EDGE('',*,*,#4220,.T.);
#5400=EDGE_LOOP('',(#5390,#5380,#5370,#5360,#5350));
#5410=FACE_OUTER_BOUND('',#5400,.T.);
#5420=ADVANCED_FACE('',(#5410),#5340,.T.);
#5430=CLOSED_SHELL('',(#500,#860,#1120,#1480,#1740,#2060,#2390,#2710,
#2950,#3270,#3600,#3920,#4150,#4310,#4430,#4620,#4820,#4930,#5050,#5180,
#5290,#5420));
#5440=MANIFOLD_SOLID_BREP('',#5430);
#5450=CARTESIAN_POINT('',(0.,0.,0.));
#5460=DIRECTION('',(0.,0.,1.));
#5470=DIRECTION('',(1.,0.,0.));
#5480=AXIS2_PLACEMENT_3D('',#5450,#5460,#5470);
#5490=APPLICATION_CONTEXT(' ');
#5500=APPLICATION_PROTOCOL_DEFINITION(' ','automotive_design',1998,#5490
);
#5510=PRODUCT_CONTEXT('',#5490,'mechanical');
#5520=PRODUCT_DEFINITION_CONTEXT('part definition',#5490,'design');
#5530=PRODUCT('1406H-140','1406H-140','',(#5510));
#5540=PRODUCT_RELATED_PRODUCT_CATEGORY('part',' ',(#5530));
#5550=PRODUCT_DEFINITION_FORMATION_WITH_SPECIFIED_SOURCE('','',#5530,
.BOUGHT.);
#5560=PRODUCT_DEFINITION('',' ',#5550,#5520);
#5570=PRODUCT_DEFINITION_SHAPE('','',#5560);
#5580=DIMENSIONAL_EXPONENTS(1.,0.,0.,0.,0.,0.,0.);
#5590=DIMENSIONAL_EXPONENTS(0.,0.,0.,0.,0.,0.,0.);
#5600=DIMENSIONAL_EXPONENTS(0.,0.,0.,0.,0.,0.,0.);
#5610=(LENGTH_UNIT() NAMED_UNIT(*) SI_UNIT(.MILLI.,.METRE.));
#5620=(NAMED_UNIT(*) PLANE_ANGLE_UNIT() SI_UNIT($,.RADIAN.));
#5630=(NAMED_UNIT(*) SI_UNIT($,.STERADIAN.) SOLID_ANGLE_UNIT());
#5640=(GEOMETRIC_REPRESENTATION_CONTEXT(3) 
GLOBAL_UNCERTAINTY_ASSIGNED_CONTEXT((#5650)) 
GLOBAL_UNIT_ASSIGNED_CONTEXT((#5610,#5620,#5630)) REPRESENTATION_CONTEXT
('',''));
#5650=UNCERTAINTY_MEASURE_WITH_UNIT(LENGTH_MEASURE(1.E-6),#5610,
'distance_accuracy_value','maximum gap value');
#5660=ADVANCED_BREP_SHAPE_REPRESENTATION('',(#5480,#5440),#5640);
#5670=SHAPE_DEFINITION_REPRESENTATION(#5570,#5660);
#5680=COLOUR_RGB('',0.600000023841858,0.600000023841858,
0.600000023841858);
#5690=FILL_AREA_STYLE_COLOUR('',#5680);
#5700=FILL_AREA_STYLE('',(#5690));
#5710=SURFACE_STYLE_FILL_AREA(#5700);
#5720=SURFACE_SIDE_STYLE('',(#5710));
#5730=SURFACE_STYLE_USAGE(.BOTH.,#5720);
#5740=PRESENTATION_STYLE_ASSIGNMENT((#5730));
#5750=STYLED_ITEM('',(#5740),#5440);
#5760=OVER_RIDING_STYLED_ITEM('',(#2130),#2060,#5750);
#5770=OVER_RIDING_STYLED_ITEM('',(#3340),#3270,#5750);
#5780=OVER_RIDING_STYLED_ITEM('',(#4500),#4430,#5750);
#5790=OVER_RIDING_STYLED_ITEM('',(#4690),#4620,#5750);
#5800=DRAUGHTING_MODEL('',(#5750,#5760,#5770,#5780,#5790),#5640);
ENDSEC;
END-ISO-10303-21;
