ISO-10303-21;
HEADER;
FILE_DESCRIPTION(('Creo Elements/Direct Modeling STEP Export'),'2;1');
FILE_NAME('1406-76.stp','2017-11-13T 8:31:55',(''),(''),
'Creo Elements/Direct Modeling STEP processor for AP214 (Solid Model)',
'Creo Elements/Direct Modeling 20.0  12-Nov-2016 (C) Parametric Technolo
gy GmbH','');
FILE_SCHEMA(('AUTOMOTIVE_DESIGN { 1 0 10303 214 1 1 1 1 }'));
ENDSEC;
DATA;
#10=CARTESIAN_POINT('',(0.,26.35,0.));
#20=DIRECTION('',(0.,0.,1.));
#30=DIRECTION('',(1.,0.,0.));
#40=AXIS2_PLACEMENT_3D('',#10,#20,#30);
#50=CYLINDRICAL_SURFACE('',#40,6.35);
#60=CARTESIAN_POINT('',(-4.44089209850063E-16,26.35,-32.));
#70=DIRECTION('',(0.,0.707106781186548,0.707106781186548));
#80=DIRECTION('',(0.,-0.707106781186548,0.707106781186548));
#90=AXIS2_PLACEMENT_3D('',#60,#70,#80);
#100=ELLIPSE('',#90,8.98025612106916,6.35);
#110=CARTESIAN_POINT('',(6.35,26.35,-32.));
#120=VERTEX_POINT('',#110);
#130=CARTESIAN_POINT('',(-1.66582913715869E-15,32.7,-38.35));
#140=VERTEX_POINT('',#130);
#150=EDGE_CURVE('',#120,#140,#100,.T.);
#160=ORIENTED_EDGE('',*,*,#150,.T.);
#170=CARTESIAN_POINT('',(6.35,26.35,0.));
#180=DIRECTION('',(0.,0.,1.));
#190=VECTOR('',#180,1.);
#200=LINE('',#170,#190);
#210=CARTESIAN_POINT('',(6.35,26.35,32.));
#220=VERTEX_POINT('',#210);
#230=EDGE_CURVE('',#120,#220,#200,.T.);
#240=ORIENTED_EDGE('',*,*,#230,.F.);
#250=CARTESIAN_POINT('',(-4.44089209850063E-16,26.35,32.));
#260=DIRECTION('',(0.,-0.707106781186548,0.707106781186548));
#270=DIRECTION('',(0.,0.707106781186548,0.707106781186548));
#280=AXIS2_PLACEMENT_3D('',#250,#260,#270);
#290=ELLIPSE('',#280,8.98025612106916,6.35);
#300=CARTESIAN_POINT('',(-8.88178419700125E-16,32.7,38.35));
#310=VERTEX_POINT('',#300);
#320=EDGE_CURVE('',#220,#310,#290,.T.);
#330=ORIENTED_EDGE('',*,*,#320,.F.);
#340=CARTESIAN_POINT('',(-6.35,26.35,32.));
#350=VERTEX_POINT('',#340);
#360=EDGE_CURVE('',#310,#350,#290,.T.);
#370=ORIENTED_EDGE('',*,*,#360,.F.);
#380=CARTESIAN_POINT('',(-6.35,26.35,0.));
#390=DIRECTION('',(0.,0.,1.));
#400=VECTOR('',#390,1.);
#410=LINE('',#380,#400);
#420=CARTESIAN_POINT('',(-6.35,26.35,-32.));
#430=VERTEX_POINT('',#420);
#440=EDGE_CURVE('',#430,#350,#410,.T.);
#450=ORIENTED_EDGE('',*,*,#440,.T.);
#460=EDGE_CURVE('',#140,#430,#100,.T.);
#470=ORIENTED_EDGE('',*,*,#460,.T.);
#480=EDGE_LOOP('',(#470,#450,#370,#330,#240,#160));
#490=FACE_OUTER_BOUND('',#480,.T.);
#500=ADVANCED_FACE('',(#490),#50,.T.);
#510=CARTESIAN_POINT('',(0.,0.,16.));
#520=DIRECTION('',(0.,-1.,0.));
#530=DIRECTION('',(0.,0.,1.));
#540=AXIS2_PLACEMENT_3D('',#510,#520,#530);
#550=PLANE('',#540);
#560=CARTESIAN_POINT('',(0.,0.,-32.));
#570=DIRECTION('',(0.,-1.,0.));
#580=DIRECTION('',(1.,0.,0.));
#590=AXIS2_PLACEMENT_3D('',#560,#570,#580);
#600=CIRCLE('',#590,1.65);
#610=CARTESIAN_POINT('',(1.65,0.,-32.));
#620=VERTEX_POINT('',#610);
#630=CARTESIAN_POINT('',(-1.65,0.,-32.));
#640=VERTEX_POINT('',#630);
#650=EDGE_CURVE('',#620,#640,#600,.T.);
#660=ORIENTED_EDGE('',*,*,#650,.F.);
#670=EDGE_CURVE('',#640,#620,#600,.T.);
#680=ORIENTED_EDGE('',*,*,#670,.F.);
#690=EDGE_LOOP('',(#680,#660));
#700=FACE_BOUND('',#690,.T.);
#710=CARTESIAN_POINT('',(-8.88178419700125E-16,0.,-32.));
#720=DIRECTION('',(0.,-1.,0.));
#730=DIRECTION('',(0.,0.,1.));
#740=AXIS2_PLACEMENT_3D('',#710,#720,#730);
#750=CIRCLE('',#740,6.35);
#760=CARTESIAN_POINT('',(-8.88178419700125E-16,0.,-25.65));
#770=VERTEX_POINT('',#760);
#780=CARTESIAN_POINT('',(-1.66582913715869E-15,0.,-38.35));
#790=VERTEX_POINT('',#780);
#800=EDGE_CURVE('',#770,#790,#750,.T.);
#810=ORIENTED_EDGE('',*,*,#800,.T.);
#820=EDGE_CURVE('',#790,#770,#750,.T.);
#830=ORIENTED_EDGE('',*,*,#820,.T.);
#840=EDGE_LOOP('',(#830,#810));
#850=FACE_OUTER_BOUND('',#840,.T.);
#860=ADVANCED_FACE('',(#700,#850),#550,.T.);
#870=CARTESIAN_POINT('',(-8.88178419700125E-16,0.,-32.));
#880=DIRECTION('',(0.,-1.,0.));
#890=DIRECTION('',(0.,0.,1.));
#900=AXIS2_PLACEMENT_3D('',#870,#880,#890);
#910=CYLINDRICAL_SURFACE('',#900,6.35);
#920=CARTESIAN_POINT('',(-8.88178419700125E-16,0.,-25.65));
#930=DIRECTION('',(0.,-1.,0.));
#940=VECTOR('',#930,1.);
#950=LINE('',#920,#940);
#960=CARTESIAN_POINT('',(-8.88178419700125E-16,20.,-25.65));
#970=VERTEX_POINT('',#960);
#980=EDGE_CURVE('',#970,#770,#950,.T.);
#990=ORIENTED_EDGE('',*,*,#980,.T.);
#1000=EDGE_CURVE('',#970,#120,#100,.T.);
#1010=ORIENTED_EDGE('',*,*,#1000,.F.);
#1020=ORIENTED_EDGE('',*,*,#150,.F.);
#1030=CARTESIAN_POINT('',(-1.66582913715869E-15,0.,-38.35));
#1040=DIRECTION('',(0.,-1.,0.));
#1050=VECTOR('',#1040,1.);
#1060=LINE('',#1030,#1050);
#1070=EDGE_CURVE('',#140,#790,#1060,.T.);
#1080=ORIENTED_EDGE('',*,*,#1070,.F.);
#1090=ORIENTED_EDGE('',*,*,#820,.F.);
#1100=EDGE_LOOP('',(#1090,#1080,#1020,#1010,#990));
#1110=FACE_OUTER_BOUND('',#1100,.T.);
#1120=ADVANCED_FACE('',(#1110),#910,.T.);
#1130=CARTESIAN_POINT('',(-8.88178419700125E-16,0.,32.));
#1140=DIRECTION('',(0.,-1.,0.));
#1150=DIRECTION('',(0.,0.,1.));
#1160=AXIS2_PLACEMENT_3D('',#1130,#1140,#1150);
#1170=CYLINDRICAL_SURFACE('',#1160,6.35);
#1180=CARTESIAN_POINT('',(-8.88178419700125E-16,0.,38.35));
#1190=DIRECTION('',(0.,-1.,0.));
#1200=VECTOR('',#1190,1.);
#1210=LINE('',#1180,#1200);
#1220=CARTESIAN_POINT('',(-8.88178419700125E-16,0.,38.35));
#1230=VERTEX_POINT('',#1220);
#1240=EDGE_CURVE('',#310,#1230,#1210,.T.);
#1250=ORIENTED_EDGE('',*,*,#1240,.T.);
#1260=ORIENTED_EDGE('',*,*,#320,.T.);
#1270=CARTESIAN_POINT('',(-1.66582913715869E-15,20.,25.65));
#1280=VERTEX_POINT('',#1270);
#1290=EDGE_CURVE('',#1280,#220,#290,.T.);
#1300=ORIENTED_EDGE('',*,*,#1290,.T.);
#1310=CARTESIAN_POINT('',(-1.66582913715869E-15,0.,25.65));
#1320=DIRECTION('',(0.,-1.,0.));
#1330=VECTOR('',#1320,1.);
#1340=LINE('',#1310,#1330);
#1350=CARTESIAN_POINT('',(-1.66582913715869E-15,0.,25.65));
#1360=VERTEX_POINT('',#1350);
#1370=EDGE_CURVE('',#1280,#1360,#1340,.T.);
#1380=ORIENTED_EDGE('',*,*,#1370,.F.);
#1390=CARTESIAN_POINT('',(-8.88178419700125E-16,0.,32.));
#1400=DIRECTION('',(0.,-1.,0.));
#1410=DIRECTION('',(0.,0.,1.));
#1420=AXIS2_PLACEMENT_3D('',#1390,#1400,#1410);
#1430=CIRCLE('',#1420,6.35);
#1440=EDGE_CURVE('',#1360,#1230,#1430,.T.);
#1450=ORIENTED_EDGE('',*,*,#1440,.F.);
#1460=EDGE_LOOP('',(#1450,#1380,#1300,#1260,#1250));
#1470=FACE_OUTER_BOUND('',#1460,.T.);
#1480=ADVANCED_FACE('',(#1470),#1170,.T.);
#1490=CARTESIAN_POINT('',(0.,0.,-16.));
#1500=DIRECTION('',(0.,-1.,0.));
#1510=DIRECTION('',(0.,0.,1.));
#1520=AXIS2_PLACEMENT_3D('',#1490,#1500,#1510);
#1530=PLANE('',#1520);
#1540=CARTESIAN_POINT('',(0.,0.,32.));
#1550=DIRECTION('',(0.,-1.,0.));
#1560=DIRECTION('',(1.,0.,0.));
#1570=AXIS2_PLACEMENT_3D('',#1540,#1550,#1560);
#1580=CIRCLE('',#1570,1.65);
#1590=CARTESIAN_POINT('',(1.65,0.,32.));
#1600=VERTEX_POINT('',#1590);
#1610=CARTESIAN_POINT('',(-1.65,0.,32.));
#1620=VERTEX_POINT('',#1610);
#1630=EDGE_CURVE('',#1600,#1620,#1580,.T.);
#1640=ORIENTED_EDGE('',*,*,#1630,.F.);
#1650=EDGE_CURVE('',#1620,#1600,#1580,.T.);
#1660=ORIENTED_EDGE('',*,*,#1650,.F.);
#1670=EDGE_LOOP('',(#1660,#1640));
#1680=FACE_BOUND('',#1670,.T.);
#1690=EDGE_CURVE('',#1230,#1360,#1430,.T.);
#1700=ORIENTED_EDGE('',*,*,#1690,.T.);
#1710=ORIENTED_EDGE('',*,*,#1440,.T.);
#1720=EDGE_LOOP('',(#1710,#1700));
#1730=FACE_OUTER_BOUND('',#1720,.T.);
#1740=ADVANCED_FACE('',(#1680,#1730),#1530,.T.);
#1750=CARTESIAN_POINT('',(0.,3.5,32.));
#1760=DIRECTION('',(0.,-1.,0.));
#1770=DIRECTION('',(1.,0.,0.));
#1780=AXIS2_PLACEMENT_3D('',#1750,#1760,#1770);
#1790=CYLINDRICAL_SURFACE('',#1780,1.65);
#1800=CARTESIAN_POINT('',(-1.65,3.5,32.));
#1810=DIRECTION('',(0.,-1.,0.));
#1820=VECTOR('',#1810,1.);
#1830=LINE('',#1800,#1820);
#1840=CARTESIAN_POINT('',(-1.65,7.,32.));
#1850=VERTEX_POINT('',#1840);
#1860=EDGE_CURVE('',#1850,#1620,#1830,.T.);
#1870=ORIENTED_EDGE('',*,*,#1860,.T.);
#1880=CARTESIAN_POINT('',(0.,7.,32.));
#1890=DIRECTION('',(0.,1.,0.));
#1900=DIRECTION('',(1.,0.,0.));
#1910=AXIS2_PLACEMENT_3D('',#1880,#1890,#1900);
#1920=CIRCLE('',#1910,1.65);
#1930=CARTESIAN_POINT('',(1.65,7.,32.));
#1940=VERTEX_POINT('',#1930);
#1950=EDGE_CURVE('',#1940,#1850,#1920,.T.);
#1960=ORIENTED_EDGE('',*,*,#1950,.T.);
#1970=CARTESIAN_POINT('',(1.65,3.5,32.));
#1980=DIRECTION('',(0.,-1.,0.));
#1990=VECTOR('',#1980,1.);
#2000=LINE('',#1970,#1990);
#2010=EDGE_CURVE('',#1940,#1600,#2000,.T.);
#2020=ORIENTED_EDGE('',*,*,#2010,.F.);
#2030=ORIENTED_EDGE('',*,*,#1650,.T.);
#2040=EDGE_LOOP('',(#2030,#2020,#1960,#1870));
#2050=FACE_OUTER_BOUND('',#2040,.T.);
#2060=ADVANCED_FACE('M4_1196281',(#2050),#1790,.F.);
#2070=COLOUR_RGB('',1.,0.,0.);
#2080=FILL_AREA_STYLE_COLOUR('',#2070);
#2090=FILL_AREA_STYLE('',(#2080));
#2100=SURFACE_STYLE_FILL_AREA(#2090);
#2110=SURFACE_SIDE_STYLE('',(#2100));
#2120=SURFACE_STYLE_USAGE(.BOTH.,#2110);
#2130=PRESENTATION_STYLE_ASSIGNMENT((#2120));
#2140=CARTESIAN_POINT('',(1.6425,7.,32.));
#2150=DIRECTION('',(0.,-1.,0.));
#2160=DIRECTION('',(1.,0.,0.));
#2170=AXIS2_PLACEMENT_3D('',#2140,#2150,#2160);
#2180=PLANE('',#2170);
#2190=CARTESIAN_POINT('',(0.,7.,32.));
#2200=DIRECTION('',(0.,1.,0.));
#2210=DIRECTION('',(1.,0.,0.));
#2220=AXIS2_PLACEMENT_3D('',#2190,#2200,#2210);
#2230=CIRCLE('',#2220,1.635);
#2240=CARTESIAN_POINT('',(1.635,7.,32.));
#2250=VERTEX_POINT('',#2240);
#2260=CARTESIAN_POINT('',(-1.635,7.,32.));
#2270=VERTEX_POINT('',#2260);
#2280=EDGE_CURVE('',#2250,#2270,#2230,.T.);
#2290=ORIENTED_EDGE('',*,*,#2280,.T.);
#2300=EDGE_CURVE('',#2270,#2250,#2230,.T.);
#2310=ORIENTED_EDGE('',*,*,#2300,.T.);
#2320=EDGE_LOOP('',(#2310,#2290));
#2330=FACE_BOUND('',#2320,.T.);
#2340=ORIENTED_EDGE('',*,*,#1950,.F.);
#2350=EDGE_CURVE('',#1850,#1940,#1920,.T.);
#2360=ORIENTED_EDGE('',*,*,#2350,.F.);
#2370=EDGE_LOOP('',(#2360,#2340));
#2380=FACE_OUTER_BOUND('',#2370,.T.);
#2390=ADVANCED_FACE('',(#2330,#2380),#2180,.T.);
#2400=CARTESIAN_POINT('',(0.,8.,32.));
#2410=DIRECTION('',(0.,-1.,0.));
#2420=DIRECTION('',(1.,0.,0.));
#2430=AXIS2_PLACEMENT_3D('',#2400,#2410,#2420);
#2440=CYLINDRICAL_SURFACE('',#2430,1.635);
#2450=CARTESIAN_POINT('',(1.635,8.,32.));
#2460=DIRECTION('',(0.,-1.,0.));
#2470=VECTOR('',#2460,1.);
#2480=LINE('',#2450,#2470);
#2490=CARTESIAN_POINT('',(1.635,9.,32.));
#2500=VERTEX_POINT('',#2490);
#2510=EDGE_CURVE('',#2500,#2250,#2480,.T.);
#2520=ORIENTED_EDGE('',*,*,#2510,.T.);
#2530=CARTESIAN_POINT('',(0.,9.,32.));
#2540=DIRECTION('',(0.,1.,0.));
#2550=DIRECTION('',(1.,0.,0.));
#2560=AXIS2_PLACEMENT_3D('',#2530,#2540,#2550);
#2570=CIRCLE('',#2560,1.635);
#2580=CARTESIAN_POINT('',(-1.635,9.,32.));
#2590=VERTEX_POINT('',#2580);
#2600=EDGE_CURVE('',#2590,#2500,#2570,.T.);
#2610=ORIENTED_EDGE('',*,*,#2600,.T.);
#2620=CARTESIAN_POINT('',(-1.635,8.,32.));
#2630=DIRECTION('',(0.,-1.,0.));
#2640=VECTOR('',#2630,1.);
#2650=LINE('',#2620,#2640);
#2660=EDGE_CURVE('',#2590,#2270,#2650,.T.);
#2670=ORIENTED_EDGE('',*,*,#2660,.F.);
#2680=ORIENTED_EDGE('',*,*,#2300,.F.);
#2690=EDGE_LOOP('',(#2680,#2670,#2610,#2520));
#2700=FACE_OUTER_BOUND('',#2690,.T.);
#2710=ADVANCED_FACE('',(#2700),#2440,.F.);
#2720=CARTESIAN_POINT('',(0.,9.,32.));
#2730=DIRECTION('',(0.,-1.,0.));
#2740=DIRECTION('',(1.,0.,0.));
#2750=AXIS2_PLACEMENT_3D('',#2720,#2730,#2740);
#2760=CONICAL_SURFACE('',#2750,1.635,1.02974425867666);
#2770=CARTESIAN_POINT('',(1.635,9.,32.));
#2780=DIRECTION('',(0.857167300702113,-0.515038074910054,0.));
#2790=VECTOR('',#2780,1.90744560444706);
#2800=LINE('',#2770,#2790);
#2810=CARTESIAN_POINT('',(-2.22044604925031E-16,9.98240711211006,32.));
#2820=VERTEX_POINT('',#2810);
#2830=EDGE_CURVE('',#2820,#2500,#2800,.T.);
#2840=ORIENTED_EDGE('',*,*,#2830,.T.);
#2850=CARTESIAN_POINT('',(-1.635,9.,32.));
#2860=DIRECTION('',(-0.857167300702113,-0.515038074910054,0.));
#2870=VECTOR('',#2860,1.90744560444706);
#2880=LINE('',#2850,#2870);
#2890=EDGE_CURVE('',#2820,#2590,#2880,.T.);
#2900=ORIENTED_EDGE('',*,*,#2890,.F.);
#2910=ORIENTED_EDGE('',*,*,#2600,.F.);
#2920=EDGE_LOOP('',(#2910,#2900,#2840));
#2930=FACE_OUTER_BOUND('',#2920,.T.);
#2940=ADVANCED_FACE('',(#2930),#2760,.F.);
#2950=CARTESIAN_POINT('',(0.,3.5,-32.));
#2960=DIRECTION('',(0.,-1.,0.));
#2970=DIRECTION('',(1.,0.,0.));
#2980=AXIS2_PLACEMENT_3D('',#2950,#2960,#2970);
#2990=CYLINDRICAL_SURFACE('',#2980,1.65);
#3000=CARTESIAN_POINT('',(-1.65,3.5,-32.));
#3010=DIRECTION('',(0.,-1.,0.));
#3020=VECTOR('',#3010,1.);
#3030=LINE('',#3000,#3020);
#3040=CARTESIAN_POINT('',(-1.65,7.,-32.));
#3050=VERTEX_POINT('',#3040);
#3060=EDGE_CURVE('',#3050,#640,#3030,.T.);
#3070=ORIENTED_EDGE('',*,*,#3060,.T.);
#3080=CARTESIAN_POINT('',(0.,7.,-32.));
#3090=DIRECTION('',(0.,1.,0.));
#3100=DIRECTION('',(1.,0.,0.));
#3110=AXIS2_PLACEMENT_3D('',#3080,#3090,#3100);
#3120=CIRCLE('',#3110,1.65);
#3130=CARTESIAN_POINT('',(1.65,7.,-32.));
#3140=VERTEX_POINT('',#3130);
#3150=EDGE_CURVE('',#3140,#3050,#3120,.T.);
#3160=ORIENTED_EDGE('',*,*,#3150,.T.);
#3170=CARTESIAN_POINT('',(1.65,3.5,-32.));
#3180=DIRECTION('',(0.,-1.,0.));
#3190=VECTOR('',#3180,1.);
#3200=LINE('',#3170,#3190);
#3210=EDGE_CURVE('',#3140,#620,#3200,.T.);
#3220=ORIENTED_EDGE('',*,*,#3210,.F.);
#3230=ORIENTED_EDGE('',*,*,#670,.T.);
#3240=EDGE_LOOP('',(#3230,#3220,#3160,#3070));
#3250=FACE_OUTER_BOUND('',#3240,.T.);
#3260=ADVANCED_FACE('M4_1197628',(#3250),#2990,.F.);
#3270=COLOUR_RGB('',1.,0.,0.);
#3280=FILL_AREA_STYLE_COLOUR('',#3270);
#3290=FILL_AREA_STYLE('',(#3280));
#3300=SURFACE_STYLE_FILL_AREA(#3290);
#3310=SURFACE_SIDE_STYLE('',(#3300));
#3320=SURFACE_STYLE_USAGE(.BOTH.,#3310);
#3330=PRESENTATION_STYLE_ASSIGNMENT((#3320));
#3340=CARTESIAN_POINT('',(1.6425,7.,-32.));
#3350=DIRECTION('',(0.,-1.,0.));
#3360=DIRECTION('',(1.,0.,0.));
#3370=AXIS2_PLACEMENT_3D('',#3340,#3350,#3360);
#3380=PLANE('',#3370);
#3390=CARTESIAN_POINT('',(0.,7.,-32.));
#3400=DIRECTION('',(0.,1.,0.));
#3410=DIRECTION('',(1.,0.,0.));
#3420=AXIS2_PLACEMENT_3D('',#3390,#3400,#3410);
#3430=CIRCLE('',#3420,1.635);
#3440=CARTESIAN_POINT('',(1.635,7.,-32.));
#3450=VERTEX_POINT('',#3440);
#3460=CARTESIAN_POINT('',(-1.635,7.,-32.));
#3470=VERTEX_POINT('',#3460);
#3480=EDGE_CURVE('',#3450,#3470,#3430,.T.);
#3490=ORIENTED_EDGE('',*,*,#3480,.T.);
#3500=EDGE_CURVE('',#3470,#3450,#3430,.T.);
#3510=ORIENTED_EDGE('',*,*,#3500,.T.);
#3520=EDGE_LOOP('',(#3510,#3490));
#3530=FACE_BOUND('',#3520,.T.);
#3540=ORIENTED_EDGE('',*,*,#3150,.F.);
#3550=EDGE_CURVE('',#3050,#3140,#3120,.T.);
#3560=ORIENTED_EDGE('',*,*,#3550,.F.);
#3570=EDGE_LOOP('',(#3560,#3540));
#3580=FACE_OUTER_BOUND('',#3570,.T.);
#3590=ADVANCED_FACE('',(#3530,#3580),#3380,.T.);
#3600=CARTESIAN_POINT('',(0.,8.,-32.));
#3610=DIRECTION('',(0.,-1.,0.));
#3620=DIRECTION('',(1.,0.,0.));
#3630=AXIS2_PLACEMENT_3D('',#3600,#3610,#3620);
#3640=CYLINDRICAL_SURFACE('',#3630,1.635);
#3650=CARTESIAN_POINT('',(1.635,8.,-32.));
#3660=DIRECTION('',(0.,-1.,0.));
#3670=VECTOR('',#3660,1.);
#3680=LINE('',#3650,#3670);
#3690=CARTESIAN_POINT('',(1.635,9.,-32.));
#3700=VERTEX_POINT('',#3690);
#3710=EDGE_CURVE('',#3700,#3450,#3680,.T.);
#3720=ORIENTED_EDGE('',*,*,#3710,.T.);
#3730=CARTESIAN_POINT('',(0.,9.,-32.));
#3740=DIRECTION('',(0.,1.,0.));
#3750=DIRECTION('',(1.,0.,0.));
#3760=AXIS2_PLACEMENT_3D('',#3730,#3740,#3750);
#3770=CIRCLE('',#3760,1.635);
#3780=CARTESIAN_POINT('',(-1.635,9.,-32.));
#3790=VERTEX_POINT('',#3780);
#3800=EDGE_CURVE('',#3790,#3700,#3770,.T.);
#3810=ORIENTED_EDGE('',*,*,#3800,.T.);
#3820=CARTESIAN_POINT('',(-1.635,8.,-32.));
#3830=DIRECTION('',(0.,-1.,0.));
#3840=VECTOR('',#3830,1.);
#3850=LINE('',#3820,#3840);
#3860=EDGE_CURVE('',#3790,#3470,#3850,.T.);
#3870=ORIENTED_EDGE('',*,*,#3860,.F.);
#3880=ORIENTED_EDGE('',*,*,#3500,.F.);
#3890=EDGE_LOOP('',(#3880,#3870,#3810,#3720));
#3900=FACE_OUTER_BOUND('',#3890,.T.);
#3910=ADVANCED_FACE('',(#3900),#3640,.F.);
#3920=CARTESIAN_POINT('',(0.,9.,-32.));
#3930=DIRECTION('',(0.,-1.,0.));
#3940=DIRECTION('',(1.,0.,0.));
#3950=AXIS2_PLACEMENT_3D('',#3920,#3930,#3940);
#3960=CONICAL_SURFACE('',#3950,1.635,1.02974425867666);
#3970=CARTESIAN_POINT('',(1.635,9.,-32.));
#3980=DIRECTION('',(0.857167300702113,-0.515038074910054,0.));
#3990=VECTOR('',#3980,1.90744560444706);
#4000=LINE('',#3970,#3990);
#4010=CARTESIAN_POINT('',(-2.22044604925031E-16,9.98240711211006,-32.));
#4020=VERTEX_POINT('',#4010);
#4030=EDGE_CURVE('',#4020,#3700,#4000,.T.);
#4040=ORIENTED_EDGE('',*,*,#4030,.T.);
#4050=CARTESIAN_POINT('',(-1.635,9.,-32.));
#4060=DIRECTION('',(-0.857167300702113,-0.515038074910054,0.));
#4070=VECTOR('',#4060,1.90744560444706);
#4080=LINE('',#4050,#4070);
#4090=EDGE_CURVE('',#4020,#3790,#4080,.T.);
#4100=ORIENTED_EDGE('',*,*,#4090,.F.);
#4110=ORIENTED_EDGE('',*,*,#3800,.F.);
#4120=EDGE_LOOP('',(#4110,#4100,#4040));
#4130=FACE_OUTER_BOUND('',#4120,.T.);
#4140=ADVANCED_FACE('',(#4130),#3960,.F.);
#4150=CARTESIAN_POINT('',(0.,26.35,0.));
#4160=DIRECTION('',(0.,0.,1.));
#4170=DIRECTION('',(1.,0.,0.));
#4180=AXIS2_PLACEMENT_3D('',#4150,#4160,#4170);
#4190=CYLINDRICAL_SURFACE('',#4180,6.35);
#4200=EDGE_CURVE('',#350,#1280,#290,.T.);
#4210=ORIENTED_EDGE('',*,*,#4200,.F.);
#4220=ORIENTED_EDGE('',*,*,#1290,.F.);
#4230=ORIENTED_EDGE('',*,*,#230,.T.);
#4240=ORIENTED_EDGE('',*,*,#1000,.T.);
#4250=EDGE_CURVE('',#430,#970,#100,.T.);
#4260=ORIENTED_EDGE('',*,*,#4250,.T.);
#4270=ORIENTED_EDGE('',*,*,#440,.F.);
#4280=EDGE_LOOP('',(#4270,#4260,#4240,#4230,#4220,#4210));
#4290=FACE_OUTER_BOUND('',#4280,.T.);
#4300=ADVANCED_FACE('',(#4290),#4190,.T.);
#4310=CARTESIAN_POINT('',(-8.88178419700125E-16,0.,32.));
#4320=DIRECTION('',(0.,-1.,0.));
#4330=DIRECTION('',(0.,0.,1.));
#4340=AXIS2_PLACEMENT_3D('',#4310,#4320,#4330);
#4350=CYLINDRICAL_SURFACE('',#4340,6.35);
#4360=ORIENTED_EDGE('',*,*,#1240,.F.);
#4370=ORIENTED_EDGE('',*,*,#1690,.F.);
#4380=ORIENTED_EDGE('',*,*,#1370,.T.);
#4390=ORIENTED_EDGE('',*,*,#4200,.T.);
#4400=ORIENTED_EDGE('',*,*,#360,.T.);
#4410=EDGE_LOOP('',(#4400,#4390,#4380,#4370,#4360));
#4420=FACE_OUTER_BOUND('',#4410,.T.);
#4430=ADVANCED_FACE('',(#4420),#4350,.T.);
#4440=CARTESIAN_POINT('',(0.,8.,32.));
#4450=DIRECTION('',(0.,-1.,0.));
#4460=DIRECTION('',(1.,0.,0.));
#4470=AXIS2_PLACEMENT_3D('',#4440,#4450,#4460);
#4480=CYLINDRICAL_SURFACE('',#4470,1.635);
#4490=ORIENTED_EDGE('',*,*,#2280,.F.);
#4500=ORIENTED_EDGE('',*,*,#2660,.T.);
#4510=EDGE_CURVE('',#2500,#2590,#2570,.T.);
#4520=ORIENTED_EDGE('',*,*,#4510,.T.);
#4530=ORIENTED_EDGE('',*,*,#2510,.F.);
#4540=EDGE_LOOP('',(#4530,#4520,#4500,#4490));
#4550=FACE_OUTER_BOUND('',#4540,.T.);
#4560=ADVANCED_FACE('',(#4550),#4480,.F.);
#4570=CARTESIAN_POINT('',(0.,9.,32.));
#4580=DIRECTION('',(0.,-1.,0.));
#4590=DIRECTION('',(1.,0.,0.));
#4600=AXIS2_PLACEMENT_3D('',#4570,#4580,#4590);
#4610=CONICAL_SURFACE('',#4600,1.635,1.02974425867666);
#4620=ORIENTED_EDGE('',*,*,#2830,.F.);
#4630=ORIENTED_EDGE('',*,*,#4510,.F.);
#4640=ORIENTED_EDGE('',*,*,#2890,.T.);
#4650=EDGE_LOOP('',(#4640,#4630,#4620));
#4660=FACE_OUTER_BOUND('',#4650,.T.);
#4670=ADVANCED_FACE('',(#4660),#4610,.F.);
#4680=CARTESIAN_POINT('',(-8.88178419700125E-16,0.,-32.));
#4690=DIRECTION('',(0.,-1.,0.));
#4700=DIRECTION('',(0.,0.,1.));
#4710=AXIS2_PLACEMENT_3D('',#4680,#4690,#4700);
#4720=CYLINDRICAL_SURFACE('',#4710,6.35);
#4730=ORIENTED_EDGE('',*,*,#800,.F.);
#4740=ORIENTED_EDGE('',*,*,#1070,.T.);
#4750=ORIENTED_EDGE('',*,*,#460,.F.);
#4760=ORIENTED_EDGE('',*,*,#4250,.F.);
#4770=ORIENTED_EDGE('',*,*,#980,.F.);
#4780=EDGE_LOOP('',(#4770,#4760,#4750,#4740,#4730));
#4790=FACE_OUTER_BOUND('',#4780,.T.);
#4800=ADVANCED_FACE('',(#4790),#4720,.T.);
#4810=CARTESIAN_POINT('',(0.,3.5,32.));
#4820=DIRECTION('',(0.,-1.,0.));
#4830=DIRECTION('',(1.,0.,0.));
#4840=AXIS2_PLACEMENT_3D('',#4810,#4820,#4830);
#4850=CYLINDRICAL_SURFACE('',#4840,1.65);
#4860=ORIENTED_EDGE('',*,*,#1860,.F.);
#4870=ORIENTED_EDGE('',*,*,#1630,.T.);
#4880=ORIENTED_EDGE('',*,*,#2010,.T.);
#4890=ORIENTED_EDGE('',*,*,#2350,.T.);
#4900=EDGE_LOOP('',(#4890,#4880,#4870,#4860));
#4910=FACE_OUTER_BOUND('',#4900,.T.);
#4920=ADVANCED_FACE('',(#4910),#4850,.F.);
#4930=COLOUR_RGB('',1.,0.,0.);
#4940=FILL_AREA_STYLE_COLOUR('',#4930);
#4950=FILL_AREA_STYLE('',(#4940));
#4960=SURFACE_STYLE_FILL_AREA(#4950);
#4970=SURFACE_SIDE_STYLE('',(#4960));
#4980=SURFACE_STYLE_USAGE(.BOTH.,#4970);
#4990=PRESENTATION_STYLE_ASSIGNMENT((#4980));
#5000=CARTESIAN_POINT('',(0.,8.,-32.));
#5010=DIRECTION('',(0.,-1.,0.));
#5020=DIRECTION('',(1.,0.,0.));
#5030=AXIS2_PLACEMENT_3D('',#5000,#5010,#5020);
#5040=CYLINDRICAL_SURFACE('',#5030,1.635);
#5050=ORIENTED_EDGE('',*,*,#3480,.F.);
#5060=ORIENTED_EDGE('',*,*,#3860,.T.);
#5070=EDGE_CURVE('',#3700,#3790,#3770,.T.);
#5080=ORIENTED_EDGE('',*,*,#5070,.T.);
#5090=ORIENTED_EDGE('',*,*,#3710,.F.);
#5100=EDGE_LOOP('',(#5090,#5080,#5060,#5050));
#5110=FACE_OUTER_BOUND('',#5100,.T.);
#5120=ADVANCED_FACE('',(#5110),#5040,.F.);
#5130=CARTESIAN_POINT('',(0.,9.,-32.));
#5140=DIRECTION('',(0.,-1.,0.));
#5150=DIRECTION('',(1.,0.,0.));
#5160=AXIS2_PLACEMENT_3D('',#5130,#5140,#5150);
#5170=CONICAL_SURFACE('',#5160,1.635,1.02974425867666);
#5180=ORIENTED_EDGE('',*,*,#4030,.F.);
#5190=ORIENTED_EDGE('',*,*,#5070,.F.);
#5200=ORIENTED_EDGE('',*,*,#4090,.T.);
#5210=EDGE_LOOP('',(#5200,#5190,#5180));
#5220=FACE_OUTER_BOUND('',#5210,.T.);
#5230=ADVANCED_FACE('',(#5220),#5170,.F.);
#5240=CARTESIAN_POINT('',(0.,3.5,-32.));
#5250=DIRECTION('',(0.,-1.,0.));
#5260=DIRECTION('',(1.,0.,0.));
#5270=AXIS2_PLACEMENT_3D('',#5240,#5250,#5260);
#5280=CYLINDRICAL_SURFACE('',#5270,1.65);
#5290=ORIENTED_EDGE('',*,*,#3060,.F.);
#5300=ORIENTED_EDGE('',*,*,#650,.T.);
#5310=ORIENTED_EDGE('',*,*,#3210,.T.);
#5320=ORIENTED_EDGE('',*,*,#3550,.T.);
#5330=EDGE_LOOP('',(#5320,#5310,#5300,#5290));
#5340=FACE_OUTER_BOUND('',#5330,.T.);
#5350=ADVANCED_FACE('',(#5340),#5280,.F.);
#5360=COLOUR_RGB('',1.,0.,0.);
#5370=FILL_AREA_STYLE_COLOUR('',#5360);
#5380=FILL_AREA_STYLE('',(#5370));
#5390=SURFACE_STYLE_FILL_AREA(#5380);
#5400=SURFACE_SIDE_STYLE('',(#5390));
#5410=SURFACE_STYLE_USAGE(.BOTH.,#5400);
#5420=PRESENTATION_STYLE_ASSIGNMENT((#5410));
#5430=CLOSED_SHELL('',(#500,#860,#1120,#1480,#1740,#2060,#2390,#2710,
#2940,#3260,#3590,#3910,#4140,#4300,#4430,#4560,#4670,#4800,#4920,#5120,
#5230,#5350));
#5440=MANIFOLD_SOLID_BREP('',#5430);
#5450=CARTESIAN_POINT('',(0.,0.,0.));
#5460=DIRECTION('',(0.,0.,1.));
#5470=DIRECTION('',(1.,0.,0.));
#5480=AXIS2_PLACEMENT_3D('',#5450,#5460,#5470);
#5490=APPLICATION_CONTEXT(' ');
#5500=APPLICATION_PROTOCOL_DEFINITION(' ','automotive_design',1998,#5490
);
#5510=PRODUCT_CONTEXT('',#5490,'mechanical');
#5520=PRODUCT_DEFINITION_CONTEXT('part definition',#5490,'design');
#5530=PRODUCT('1406-76','1406-76','',(#5510));
#5540=PRODUCT_RELATED_PRODUCT_CATEGORY('part',' ',(#5530));
#5550=PRODUCT_DEFINITION_FORMATION_WITH_SPECIFIED_SOURCE('','',#5530,
.BOUGHT.);
#5560=PRODUCT_DEFINITION('',' ',#5550,#5520);
#5570=PRODUCT_DEFINITION_SHAPE('','',#5560);
#5580=DIMENSIONAL_EXPONENTS(1.,0.,0.,0.,0.,0.,0.);
#5590=DIMENSIONAL_EXPONENTS(0.,0.,0.,0.,0.,0.,0.);
#5600=DIMENSIONAL_EXPONENTS(0.,0.,0.,0.,0.,0.,0.);
#5610=(LENGTH_UNIT() NAMED_UNIT(*) SI_UNIT(.MILLI.,.METRE.));
#5620=(NAMED_UNIT(*) PLANE_ANGLE_UNIT() SI_UNIT($,.RADIAN.));
#5630=(NAMED_UNIT(*) SI_UNIT($,.STERADIAN.) SOLID_ANGLE_UNIT());
#5640=(GEOMETRIC_REPRESENTATION_CONTEXT(3) 
GLOBAL_UNCERTAINTY_ASSIGNED_CONTEXT((#5650)) 
GLOBAL_UNIT_ASSIGNED_CONTEXT((#5610,#5620,#5630)) REPRESENTATION_CONTEXT
('',''));
#5650=UNCERTAINTY_MEASURE_WITH_UNIT(LENGTH_MEASURE(1.E-6),#5610,
'distance_accuracy_value','maximum gap value');
#5660=ADVANCED_BREP_SHAPE_REPRESENTATION('',(#5480,#5440),#5640);
#5670=SHAPE_DEFINITION_REPRESENTATION(#5570,#5660);
#5680=COLOUR_RGB('',0.600000023841858,0.600000023841858,
0.600000023841858);
#5690=FILL_AREA_STYLE_COLOUR('',#5680);
#5700=FILL_AREA_STYLE('',(#5690));
#5710=SURFACE_STYLE_FILL_AREA(#5700);
#5720=SURFACE_SIDE_STYLE('',(#5710));
#5730=SURFACE_STYLE_USAGE(.BOTH.,#5720);
#5740=PRESENTATION_STYLE_ASSIGNMENT((#5730));
#5750=STYLED_ITEM('',(#5740),#5440);
#5760=OVER_RIDING_STYLED_ITEM('',(#2130),#2060,#5750);
#5770=OVER_RIDING_STYLED_ITEM('',(#3330),#3260,#5750);
#5780=OVER_RIDING_STYLED_ITEM('',(#4990),#4920,#5750);
#5790=OVER_RIDING_STYLED_ITEM('',(#5420),#5350,#5750);
#5800=DRAUGHTING_MODEL('',(#5750,#5760,#5770,#5780,#5790),#5640);
ENDSEC;
END-ISO-10303-21;
