ISO-10303-21;
HEADER;
FILE_DESCRIPTION(('Creo Elements/Direct Modeling STEP Export'),'2;1');
FILE_NAME('2292-50.stp','2022-05-04T10:39:40',(''),(''),
'Creo Elements/Direct Modeling STEP processor for AP214 (Solid Model)',
'Creo Elements/Direct Modeling 20.0  12-Nov-2016 (C) Parametric Technolo
gy GmbH','');
FILE_SCHEMA(('AUTOMOTIVE_DESIGN { 1 0 10303 214 1 1 1 1 }'));
ENDSEC;
DATA;
#10=CARTESIAN_POINT('',(15.,3.,0.));
#20=DIRECTION('',(-0.,1.,0.));
#30=DIRECTION('',(1.,0.,0.));
#40=AXIS2_PLACEMENT_3D('',#10,#20,#30);
#50=PLANE('',#40);
#60=CARTESIAN_POINT('',(0.,3.,0.));
#70=DIRECTION('',(0.,1.,0.));
#80=DIRECTION('',(1.,0.,0.));
#90=AXIS2_PLACEMENT_3D('',#60,#70,#80);
#100=CIRCLE('',#90,19.);
#110=CARTESIAN_POINT('',(19.,3.,0.));
#120=VERTEX_POINT('',#110);
#130=CARTESIAN_POINT('',(-19.,3.,0.));
#140=VERTEX_POINT('',#130);
#150=EDGE_CURVE('',#120,#140,#100,.T.);
#160=ORIENTED_EDGE('',*,*,#150,.F.);
#170=EDGE_CURVE('',#140,#120,#100,.T.);
#180=ORIENTED_EDGE('',*,*,#170,.F.);
#190=EDGE_LOOP('',(#180,#160));
#200=FACE_OUTER_BOUND('',#190,.T.);
#210=ADVANCED_FACE('',(#200),#50,.F.);
#220=CARTESIAN_POINT('',(0.,7.,0.));
#230=DIRECTION('',(0.,1.,0.));
#240=DIRECTION('',(1.,0.,0.));
#250=AXIS2_PLACEMENT_3D('',#220,#230,#240);
#260=CYLINDRICAL_SURFACE('',#250,20.);
#270=CARTESIAN_POINT('',(20.,7.,0.));
#280=DIRECTION('',(0.,1.,0.));
#290=VECTOR('',#280,1.);
#300=LINE('',#270,#290);
#310=CARTESIAN_POINT('',(20.,4.,0.));
#320=VERTEX_POINT('',#310);
#330=CARTESIAN_POINT('',(20.,13.3,0.));
#340=VERTEX_POINT('',#330);
#350=EDGE_CURVE('',#320,#340,#300,.T.);
#360=ORIENTED_EDGE('',*,*,#350,.T.);
#370=CARTESIAN_POINT('',(0.,4.,0.));
#380=DIRECTION('',(0.,1.,0.));
#390=DIRECTION('',(1.,0.,0.));
#400=AXIS2_PLACEMENT_3D('',#370,#380,#390);
#410=CIRCLE('',#400,20.);
#420=CARTESIAN_POINT('',(-20.,4.,0.));
#430=VERTEX_POINT('',#420);
#440=EDGE_CURVE('',#430,#320,#410,.T.);
#450=ORIENTED_EDGE('',*,*,#440,.T.);
#460=CARTESIAN_POINT('',(-20.,7.,-2.44929359829471E-15));
#470=DIRECTION('',(0.,1.,0.));
#480=VECTOR('',#470,1.);
#490=LINE('',#460,#480);
#500=CARTESIAN_POINT('',(-20.,13.3,0.));
#510=VERTEX_POINT('',#500);
#520=EDGE_CURVE('',#430,#510,#490,.T.);
#530=ORIENTED_EDGE('',*,*,#520,.F.);
#540=CARTESIAN_POINT('',(0.,13.3,0.));
#550=DIRECTION('',(0.,1.,0.));
#560=DIRECTION('',(1.,0.,0.));
#570=AXIS2_PLACEMENT_3D('',#540,#550,#560);
#580=CIRCLE('',#570,20.);
#590=EDGE_CURVE('',#510,#340,#580,.T.);
#600=ORIENTED_EDGE('',*,*,#590,.F.);
#610=EDGE_LOOP('',(#600,#530,#450,#360));
#620=FACE_OUTER_BOUND('',#610,.T.);
#630=ADVANCED_FACE('',(#620),#260,.T.);
#640=CARTESIAN_POINT('',(32.5,14.,0.));
#650=DIRECTION('',(-0.,1.,0.));
#660=DIRECTION('',(1.,0.,0.));
#670=AXIS2_PLACEMENT_3D('',#640,#650,#660);
#680=PLANE('',#670);
#690=CARTESIAN_POINT('',(0.,14.,0.));
#700=DIRECTION('',(0.,1.,0.));
#710=DIRECTION('',(1.,0.,0.));
#720=AXIS2_PLACEMENT_3D('',#690,#700,#710);
#730=CIRCLE('',#720,20.7);
#740=CARTESIAN_POINT('',(20.7,14.,0.));
#750=VERTEX_POINT('',#740);
#760=CARTESIAN_POINT('',(-20.7,14.,0.));
#770=VERTEX_POINT('',#760);
#780=EDGE_CURVE('',#750,#770,#730,.T.);
#790=ORIENTED_EDGE('',*,*,#780,.T.);
#800=EDGE_CURVE('',#770,#750,#730,.T.);
#810=ORIENTED_EDGE('',*,*,#800,.T.);
#820=EDGE_LOOP('',(#810,#790));
#830=FACE_BOUND('',#820,.T.);
#840=CARTESIAN_POINT('',(0.,14.,0.));
#850=DIRECTION('',(0.,1.,0.));
#860=DIRECTION('',(1.,0.,0.));
#870=AXIS2_PLACEMENT_3D('',#840,#850,#860);
#880=CIRCLE('',#870,25.);
#890=CARTESIAN_POINT('',(25.,14.,0.));
#900=VERTEX_POINT('',#890);
#910=CARTESIAN_POINT('',(-25.,14.,-3.06161699786838E-15));
#920=VERTEX_POINT('',#910);
#930=EDGE_CURVE('',#900,#920,#880,.T.);
#940=ORIENTED_EDGE('',*,*,#930,.F.);
#950=EDGE_CURVE('',#920,#900,#880,.T.);
#960=ORIENTED_EDGE('',*,*,#950,.F.);
#970=EDGE_LOOP('',(#960,#940));
#980=FACE_OUTER_BOUND('',#970,.T.);
#990=ADVANCED_FACE('',(#830,#980),#680,.F.);
#1000=CARTESIAN_POINT('',(0.,14.15,0.));
#1010=DIRECTION('',(0.,1.,0.));
#1020=DIRECTION('',(1.,0.,0.));
#1030=AXIS2_PLACEMENT_3D('',#1000,#1010,#1020);
#1040=CYLINDRICAL_SURFACE('',#1030,25.);
#1050=CARTESIAN_POINT('',(25.,14.15,0.));
#1060=DIRECTION('',(0.,1.,0.));
#1070=VECTOR('',#1060,1.);
#1080=LINE('',#1050,#1070);
#1090=CARTESIAN_POINT('',(25.,14.3,0.));
#1100=VERTEX_POINT('',#1090);
#1110=EDGE_CURVE('',#900,#1100,#1080,.T.);
#1120=ORIENTED_EDGE('',*,*,#1110,.T.);
#1130=ORIENTED_EDGE('',*,*,#950,.T.);
#1140=CARTESIAN_POINT('',(-25.,14.15,-3.06161699786838E-15));
#1150=DIRECTION('',(0.,1.,0.));
#1160=VECTOR('',#1150,1.);
#1170=LINE('',#1140,#1160);
#1180=CARTESIAN_POINT('',(-25.,14.3,-3.06161699786838E-15));
#1190=VERTEX_POINT('',#1180);
#1200=EDGE_CURVE('',#920,#1190,#1170,.T.);
#1210=ORIENTED_EDGE('',*,*,#1200,.F.);
#1220=CARTESIAN_POINT('',(0.,14.3,0.));
#1230=DIRECTION('',(0.,1.,0.));
#1240=DIRECTION('',(1.,0.,0.));
#1250=AXIS2_PLACEMENT_3D('',#1220,#1230,#1240);
#1260=CIRCLE('',#1250,25.);
#1270=EDGE_CURVE('',#1190,#1100,#1260,.T.);
#1280=ORIENTED_EDGE('',*,*,#1270,.F.);
#1290=EDGE_LOOP('',(#1280,#1210,#1130,#1120));
#1300=FACE_OUTER_BOUND('',#1290,.T.);
#1310=ADVANCED_FACE('',(#1300),#1040,.T.);
#1320=CARTESIAN_POINT('',(32.35,14.3,0.));
#1330=DIRECTION('',(-0.,1.,0.));
#1340=DIRECTION('',(1.,0.,0.));
#1350=AXIS2_PLACEMENT_3D('',#1320,#1330,#1340);
#1360=PLANE('',#1350);
#1370=CARTESIAN_POINT('',(0.,14.3,0.));
#1380=DIRECTION('',(0.,1.,0.));
#1390=DIRECTION('',(1.,0.,0.));
#1400=AXIS2_PLACEMENT_3D('',#1370,#1380,#1390);
#1410=CIRCLE('',#1400,20.7);
#1420=CARTESIAN_POINT('',(20.7,14.3,0.));
#1430=VERTEX_POINT('',#1420);
#1440=CARTESIAN_POINT('',(-20.7,14.3,0.));
#1450=VERTEX_POINT('',#1440);
#1460=EDGE_CURVE('',#1430,#1450,#1410,.T.);
#1470=ORIENTED_EDGE('',*,*,#1460,.F.);
#1480=EDGE_CURVE('',#1450,#1430,#1410,.T.);
#1490=ORIENTED_EDGE('',*,*,#1480,.F.);
#1500=EDGE_LOOP('',(#1490,#1470));
#1510=FACE_BOUND('',#1500,.T.);
#1520=EDGE_CURVE('',#1100,#1190,#1260,.T.);
#1530=ORIENTED_EDGE('',*,*,#1520,.T.);
#1540=ORIENTED_EDGE('',*,*,#1270,.T.);
#1550=EDGE_LOOP('',(#1540,#1530));
#1560=FACE_OUTER_BOUND('',#1550,.T.);
#1570=ADVANCED_FACE('',(#1510,#1560),#1360,.T.);
#1580=CARTESIAN_POINT('',(0.,7.3,0.));
#1590=DIRECTION('',(0.,1.,0.));
#1600=DIRECTION('',(1.,0.,0.));
#1610=AXIS2_PLACEMENT_3D('',#1580,#1590,#1600);
#1620=CYLINDRICAL_SURFACE('',#1610,19.7);
#1630=CARTESIAN_POINT('',(19.7,7.3,0.));
#1640=DIRECTION('',(0.,1.,0.));
#1650=VECTOR('',#1640,1.);
#1660=LINE('',#1630,#1650);
#1670=CARTESIAN_POINT('',(19.7,4.,0.));
#1680=VERTEX_POINT('',#1670);
#1690=CARTESIAN_POINT('',(19.7,13.3,0.));
#1700=VERTEX_POINT('',#1690);
#1710=EDGE_CURVE('',#1680,#1700,#1660,.T.);
#1720=ORIENTED_EDGE('',*,*,#1710,.F.);
#1730=CARTESIAN_POINT('',(0.,13.3,0.));
#1740=DIRECTION('',(0.,1.,0.));
#1750=DIRECTION('',(1.,0.,0.));
#1760=AXIS2_PLACEMENT_3D('',#1730,#1740,#1750);
#1770=CIRCLE('',#1760,19.7);
#1780=CARTESIAN_POINT('',(-19.7,13.3,0.));
#1790=VERTEX_POINT('',#1780);
#1800=EDGE_CURVE('',#1790,#1700,#1770,.T.);
#1810=ORIENTED_EDGE('',*,*,#1800,.T.);
#1820=CARTESIAN_POINT('',(-19.7,7.3,-2.41255419432029E-15));
#1830=DIRECTION('',(0.,1.,0.));
#1840=VECTOR('',#1830,1.);
#1850=LINE('',#1820,#1840);
#1860=CARTESIAN_POINT('',(-19.7,4.,0.));
#1870=VERTEX_POINT('',#1860);
#1880=EDGE_CURVE('',#1870,#1790,#1850,.T.);
#1890=ORIENTED_EDGE('',*,*,#1880,.T.);
#1900=CARTESIAN_POINT('',(0.,4.,0.));
#1910=DIRECTION('',(0.,1.,0.));
#1920=DIRECTION('',(1.,0.,0.));
#1930=AXIS2_PLACEMENT_3D('',#1900,#1910,#1920);
#1940=CIRCLE('',#1930,19.7);
#1950=EDGE_CURVE('',#1870,#1680,#1940,.T.);
#1960=ORIENTED_EDGE('',*,*,#1950,.F.);
#1970=EDGE_LOOP('',(#1960,#1890,#1810,#1720));
#1980=FACE_OUTER_BOUND('',#1970,.T.);
#1990=ADVANCED_FACE('',(#1980),#1620,.F.);
#2000=CARTESIAN_POINT('',(14.85,3.3,0.));
#2010=DIRECTION('',(-0.,1.,0.));
#2020=DIRECTION('',(1.,0.,0.));
#2030=AXIS2_PLACEMENT_3D('',#2000,#2010,#2020);
#2040=PLANE('',#2030);
#2050=CARTESIAN_POINT('',(0.,3.3,0.));
#2060=DIRECTION('',(0.,1.,0.));
#2070=DIRECTION('',(1.,0.,0.));
#2080=AXIS2_PLACEMENT_3D('',#2050,#2060,#2070);
#2090=CIRCLE('',#2080,19.);
#2100=CARTESIAN_POINT('',(19.,3.3,0.));
#2110=VERTEX_POINT('',#2100);
#2120=CARTESIAN_POINT('',(-19.,3.3,0.));
#2130=VERTEX_POINT('',#2120);
#2140=EDGE_CURVE('',#2110,#2130,#2090,.T.);
#2150=ORIENTED_EDGE('',*,*,#2140,.T.);
#2160=EDGE_CURVE('',#2130,#2110,#2090,.T.);
#2170=ORIENTED_EDGE('',*,*,#2160,.T.);
#2180=EDGE_LOOP('',(#2170,#2150));
#2190=FACE_OUTER_BOUND('',#2180,.T.);
#2200=ADVANCED_FACE('',(#2190),#2040,.T.);
#2210=CARTESIAN_POINT('',(0.,13.3,0.));
#2220=DIRECTION('',(0.,1.,0.));
#2230=DIRECTION('',(1.,0.,0.));
#2240=AXIS2_PLACEMENT_3D('',#2210,#2220,#2230);
#2250=TOROIDAL_SURFACE('',#2240,20.7,0.7);
#2260=CARTESIAN_POINT('',(-20.7,13.3,0.));
#2270=DIRECTION('',(0.,0.,1.));
#2280=DIRECTION('',(1.,0.,0.));
#2290=AXIS2_PLACEMENT_3D('',#2260,#2270,#2280);
#2300=CIRCLE('',#2290,0.7);
#2310=EDGE_CURVE('',#510,#770,#2300,.T.);
#2320=ORIENTED_EDGE('',*,*,#2310,.F.);
#2330=ORIENTED_EDGE('',*,*,#800,.F.);
#2340=CARTESIAN_POINT('',(20.7,13.3,0.));
#2350=DIRECTION('',(0.,0.,-1.));
#2360=DIRECTION('',(-1.,0.,0.));
#2370=AXIS2_PLACEMENT_3D('',#2340,#2350,#2360);
#2380=CIRCLE('',#2370,0.7);
#2390=EDGE_CURVE('',#340,#750,#2380,.T.);
#2400=ORIENTED_EDGE('',*,*,#2390,.T.);
#2410=ORIENTED_EDGE('',*,*,#590,.T.);
#2420=EDGE_LOOP('',(#2410,#2400,#2330,#2320));
#2430=FACE_OUTER_BOUND('',#2420,.T.);
#2440=ADVANCED_FACE('',(#2430),#2250,.F.);
#2450=CARTESIAN_POINT('',(0.,13.3,0.));
#2460=DIRECTION('',(0.,1.,0.));
#2470=DIRECTION('',(1.,0.,0.));
#2480=AXIS2_PLACEMENT_3D('',#2450,#2460,#2470);
#2490=TOROIDAL_SURFACE('',#2480,20.7,1.);
#2500=CARTESIAN_POINT('',(-20.7,13.3,0.));
#2510=DIRECTION('',(0.,0.,1.));
#2520=DIRECTION('',(1.,0.,0.));
#2530=AXIS2_PLACEMENT_3D('',#2500,#2510,#2520);
#2540=CIRCLE('',#2530,1.);
#2550=EDGE_CURVE('',#1790,#1450,#2540,.T.);
#2560=ORIENTED_EDGE('',*,*,#2550,.T.);
#2570=ORIENTED_EDGE('',*,*,#1800,.F.);
#2580=CARTESIAN_POINT('',(20.7,13.3,0.));
#2590=DIRECTION('',(0.,0.,-1.));
#2600=DIRECTION('',(-1.,0.,0.));
#2610=AXIS2_PLACEMENT_3D('',#2580,#2590,#2600);
#2620=CIRCLE('',#2610,1.);
#2630=EDGE_CURVE('',#1700,#1430,#2620,.T.);
#2640=ORIENTED_EDGE('',*,*,#2630,.F.);
#2650=ORIENTED_EDGE('',*,*,#1480,.T.);
#2660=EDGE_LOOP('',(#2650,#2640,#2570,#2560));
#2670=FACE_OUTER_BOUND('',#2660,.T.);
#2680=ADVANCED_FACE('',(#2670),#2490,.T.);
#2690=CARTESIAN_POINT('',(0.,4.,0.));
#2700=DIRECTION('',(0.,1.,0.));
#2710=DIRECTION('',(1.,0.,0.));
#2720=AXIS2_PLACEMENT_3D('',#2690,#2700,#2710);
#2730=TOROIDAL_SURFACE('',#2720,19.,0.7);
#2740=CARTESIAN_POINT('',(-19.,4.,0.));
#2750=DIRECTION('',(0.,0.,1.));
#2760=DIRECTION('',(1.,0.,0.));
#2770=AXIS2_PLACEMENT_3D('',#2740,#2750,#2760);
#2780=CIRCLE('',#2770,0.7);
#2790=EDGE_CURVE('',#1870,#2130,#2780,.T.);
#2800=ORIENTED_EDGE('',*,*,#2790,.F.);
#2810=ORIENTED_EDGE('',*,*,#2160,.F.);
#2820=CARTESIAN_POINT('',(19.,4.,0.));
#2830=DIRECTION('',(0.,0.,-1.));
#2840=DIRECTION('',(-1.,0.,0.));
#2850=AXIS2_PLACEMENT_3D('',#2820,#2830,#2840);
#2860=CIRCLE('',#2850,0.7);
#2870=EDGE_CURVE('',#1680,#2110,#2860,.T.);
#2880=ORIENTED_EDGE('',*,*,#2870,.T.);
#2890=ORIENTED_EDGE('',*,*,#1950,.T.);
#2900=EDGE_LOOP('',(#2890,#2880,#2810,#2800));
#2910=FACE_OUTER_BOUND('',#2900,.T.);
#2920=ADVANCED_FACE('',(#2910),#2730,.F.);
#2930=CARTESIAN_POINT('',(0.,4.,0.));
#2940=DIRECTION('',(0.,1.,0.));
#2950=DIRECTION('',(1.,0.,0.));
#2960=AXIS2_PLACEMENT_3D('',#2930,#2940,#2950);
#2970=TOROIDAL_SURFACE('',#2960,19.,1.);
#2980=CARTESIAN_POINT('',(-19.,4.,0.));
#2990=DIRECTION('',(0.,0.,1.));
#3000=DIRECTION('',(1.,0.,0.));
#3010=AXIS2_PLACEMENT_3D('',#2980,#2990,#3000);
#3020=CIRCLE('',#3010,1.);
#3030=EDGE_CURVE('',#430,#140,#3020,.T.);
#3040=ORIENTED_EDGE('',*,*,#3030,.T.);
#3050=ORIENTED_EDGE('',*,*,#440,.F.);
#3060=CARTESIAN_POINT('',(19.,4.,0.));
#3070=DIRECTION('',(0.,0.,-1.));
#3080=DIRECTION('',(-1.,0.,0.));
#3090=AXIS2_PLACEMENT_3D('',#3060,#3070,#3080);
#3100=CIRCLE('',#3090,1.);
#3110=EDGE_CURVE('',#320,#120,#3100,.T.);
#3120=ORIENTED_EDGE('',*,*,#3110,.F.);
#3130=ORIENTED_EDGE('',*,*,#170,.T.);
#3140=EDGE_LOOP('',(#3130,#3120,#3050,#3040));
#3150=FACE_OUTER_BOUND('',#3140,.T.);
#3160=ADVANCED_FACE('',(#3150),#2970,.T.);
#3170=CARTESIAN_POINT('',(0.,14.15,0.));
#3180=DIRECTION('',(0.,1.,0.));
#3190=DIRECTION('',(1.,0.,0.));
#3200=AXIS2_PLACEMENT_3D('',#3170,#3180,#3190);
#3210=CYLINDRICAL_SURFACE('',#3200,25.);
#3220=ORIENTED_EDGE('',*,*,#1520,.F.);
#3230=ORIENTED_EDGE('',*,*,#1200,.T.);
#3240=ORIENTED_EDGE('',*,*,#930,.T.);
#3250=ORIENTED_EDGE('',*,*,#1110,.F.);
#3260=EDGE_LOOP('',(#3250,#3240,#3230,#3220));
#3270=FACE_OUTER_BOUND('',#3260,.T.);
#3280=ADVANCED_FACE('',(#3270),#3210,.T.);
#3290=CARTESIAN_POINT('',(0.,7.3,0.));
#3300=DIRECTION('',(0.,1.,0.));
#3310=DIRECTION('',(1.,0.,0.));
#3320=AXIS2_PLACEMENT_3D('',#3290,#3300,#3310);
#3330=CYLINDRICAL_SURFACE('',#3320,19.7);
#3340=EDGE_CURVE('',#1680,#1870,#1940,.T.);
#3350=ORIENTED_EDGE('',*,*,#3340,.F.);
#3360=ORIENTED_EDGE('',*,*,#1880,.F.);
#3370=EDGE_CURVE('',#1700,#1790,#1770,.T.);
#3380=ORIENTED_EDGE('',*,*,#3370,.T.);
#3390=ORIENTED_EDGE('',*,*,#1710,.T.);
#3400=EDGE_LOOP('',(#3390,#3380,#3360,#3350));
#3410=FACE_OUTER_BOUND('',#3400,.T.);
#3420=ADVANCED_FACE('',(#3410),#3330,.F.);
#3430=CARTESIAN_POINT('',(0.,7.,0.));
#3440=DIRECTION('',(0.,1.,0.));
#3450=DIRECTION('',(1.,0.,0.));
#3460=AXIS2_PLACEMENT_3D('',#3430,#3440,#3450);
#3470=CYLINDRICAL_SURFACE('',#3460,20.);
#3480=EDGE_CURVE('',#340,#510,#580,.T.);
#3490=ORIENTED_EDGE('',*,*,#3480,.F.);
#3500=ORIENTED_EDGE('',*,*,#520,.T.);
#3510=EDGE_CURVE('',#320,#430,#410,.T.);
#3520=ORIENTED_EDGE('',*,*,#3510,.T.);
#3530=ORIENTED_EDGE('',*,*,#350,.F.);
#3540=EDGE_LOOP('',(#3530,#3520,#3500,#3490));
#3550=FACE_OUTER_BOUND('',#3540,.T.);
#3560=ADVANCED_FACE('',(#3550),#3470,.T.);
#3570=CARTESIAN_POINT('',(0.,13.3,0.));
#3580=DIRECTION('',(0.,1.,0.));
#3590=DIRECTION('',(1.,0.,0.));
#3600=AXIS2_PLACEMENT_3D('',#3570,#3580,#3590);
#3610=TOROIDAL_SURFACE('',#3600,20.7,0.7);
#3620=ORIENTED_EDGE('',*,*,#780,.F.);
#3630=ORIENTED_EDGE('',*,*,#2310,.T.);
#3640=ORIENTED_EDGE('',*,*,#3480,.T.);
#3650=ORIENTED_EDGE('',*,*,#2390,.F.);
#3660=EDGE_LOOP('',(#3650,#3640,#3630,#3620));
#3670=FACE_OUTER_BOUND('',#3660,.T.);
#3680=ADVANCED_FACE('',(#3670),#3610,.F.);
#3690=CARTESIAN_POINT('',(0.,4.,0.));
#3700=DIRECTION('',(0.,1.,0.));
#3710=DIRECTION('',(1.,0.,0.));
#3720=AXIS2_PLACEMENT_3D('',#3690,#3700,#3710);
#3730=TOROIDAL_SURFACE('',#3720,19.,1.);
#3740=ORIENTED_EDGE('',*,*,#3510,.F.);
#3750=ORIENTED_EDGE('',*,*,#3030,.F.);
#3760=ORIENTED_EDGE('',*,*,#150,.T.);
#3770=ORIENTED_EDGE('',*,*,#3110,.T.);
#3780=EDGE_LOOP('',(#3770,#3760,#3750,#3740));
#3790=FACE_OUTER_BOUND('',#3780,.T.);
#3800=ADVANCED_FACE('',(#3790),#3730,.T.);
#3810=CARTESIAN_POINT('',(0.,13.3,0.));
#3820=DIRECTION('',(0.,1.,0.));
#3830=DIRECTION('',(1.,0.,0.));
#3840=AXIS2_PLACEMENT_3D('',#3810,#3820,#3830);
#3850=TOROIDAL_SURFACE('',#3840,20.7,1.);
#3860=ORIENTED_EDGE('',*,*,#3370,.F.);
#3870=ORIENTED_EDGE('',*,*,#2550,.F.);
#3880=ORIENTED_EDGE('',*,*,#1460,.T.);
#3890=ORIENTED_EDGE('',*,*,#2630,.T.);
#3900=EDGE_LOOP('',(#3890,#3880,#3870,#3860));
#3910=FACE_OUTER_BOUND('',#3900,.T.);
#3920=ADVANCED_FACE('',(#3910),#3850,.T.);
#3930=CARTESIAN_POINT('',(0.,4.,0.));
#3940=DIRECTION('',(0.,1.,0.));
#3950=DIRECTION('',(1.,0.,0.));
#3960=AXIS2_PLACEMENT_3D('',#3930,#3940,#3950);
#3970=TOROIDAL_SURFACE('',#3960,19.,0.7);
#3980=ORIENTED_EDGE('',*,*,#2140,.F.);
#3990=ORIENTED_EDGE('',*,*,#2790,.T.);
#4000=ORIENTED_EDGE('',*,*,#3340,.T.);
#4010=ORIENTED_EDGE('',*,*,#2870,.F.);
#4020=EDGE_LOOP('',(#4010,#4000,#3990,#3980));
#4030=FACE_OUTER_BOUND('',#4020,.T.);
#4040=ADVANCED_FACE('',(#4030),#3970,.F.);
#4050=CLOSED_SHELL('',(#210,#630,#990,#1310,#1570,#1990,#2200,#2440,
#2680,#2920,#3160,#3280,#3420,#3560,#3680,#3800,#3920,#4040));
#4060=MANIFOLD_SOLID_BREP('',#4050);
#4070=CARTESIAN_POINT('',(0.,0.,0.));
#4080=DIRECTION('',(0.,0.,1.));
#4090=DIRECTION('',(1.,0.,0.));
#4100=AXIS2_PLACEMENT_3D('',#4070,#4080,#4090);
#4110=APPLICATION_CONTEXT(' ');
#4120=APPLICATION_PROTOCOL_DEFINITION(' ','automotive_design',1998,#4110
);
#4130=PRODUCT_CONTEXT('',#4110,'mechanical');
#4140=PRODUCT_DEFINITION_CONTEXT('part definition',#4110,'design');
#4150=PRODUCT('Unterteil','Unterteil','',(#4130));
#4160=PRODUCT_RELATED_PRODUCT_CATEGORY('part',' ',(#4150));
#4170=PRODUCT_DEFINITION_FORMATION_WITH_SPECIFIED_SOURCE('','',#4150,
.BOUGHT.);
#4180=PRODUCT_DEFINITION('',' ',#4170,#4140);
#4190=PRODUCT_DEFINITION_SHAPE('','',#4180);
#4200=DIMENSIONAL_EXPONENTS(1.,0.,0.,0.,0.,0.,0.);
#4210=DIMENSIONAL_EXPONENTS(0.,0.,0.,0.,0.,0.,0.);
#4220=DIMENSIONAL_EXPONENTS(0.,0.,0.,0.,0.,0.,0.);
#4230=(LENGTH_UNIT() NAMED_UNIT(*) SI_UNIT(.MILLI.,.METRE.));
#4240=(NAMED_UNIT(*) PLANE_ANGLE_UNIT() SI_UNIT($,.RADIAN.));
#4250=(NAMED_UNIT(*) SI_UNIT($,.STERADIAN.) SOLID_ANGLE_UNIT());
#4260=(GEOMETRIC_REPRESENTATION_CONTEXT(3) 
GLOBAL_UNCERTAINTY_ASSIGNED_CONTEXT((#4270)) 
GLOBAL_UNIT_ASSIGNED_CONTEXT((#4230,#4240,#4250)) REPRESENTATION_CONTEXT
('',''));
#4270=UNCERTAINTY_MEASURE_WITH_UNIT(LENGTH_MEASURE(1.E-6),#4230,
'distance_accuracy_value','maximum gap value');
#4280=ADVANCED_BREP_SHAPE_REPRESENTATION('',(#4100,#4060),#4260);
#4290=SHAPE_DEFINITION_REPRESENTATION(#4190,#4280);
#4300=COLOUR_RGB('',0.600000023841858,0.600000023841858,
0.600000023841858);
#4310=FILL_AREA_STYLE_COLOUR('',#4300);
#4320=FILL_AREA_STYLE('',(#4310));
#4330=SURFACE_STYLE_FILL_AREA(#4320);
#4340=SURFACE_SIDE_STYLE('',(#4330));
#4350=SURFACE_STYLE_USAGE(.BOTH.,#4340);
#4360=PRESENTATION_STYLE_ASSIGNMENT((#4350));
#4370=STYLED_ITEM('',(#4360),#4060);
#4380=DRAUGHTING_MODEL('',(#4370),#4260);
#4390=CARTESIAN_POINT('',(-76.,0.,0.));
#4400=DIRECTION('',(0.,0.,1.));
#4410=DIRECTION('',(1.,0.,0.));
#4420=AXIS2_PLACEMENT_3D('',#4390,#4400,#4410);
#4430=ITEM_DEFINED_TRANSFORMATION('Unterteil','',#4100,#4420);
#4440=CARTESIAN_POINT('',(-32.35,14.3,0.));
#4450=DIRECTION('',(-0.,1.,0.));
#4460=DIRECTION('',(1.,0.,0.));
#4470=AXIS2_PLACEMENT_3D('',#4440,#4450,#4460);
#4480=PLANE('',#4470);
#4490=CARTESIAN_POINT('',(0.,14.3,0.));
#4500=DIRECTION('',(0.,1.,0.));
#4510=DIRECTION('',(1.,0.,0.));
#4520=AXIS2_PLACEMENT_3D('',#4490,#4500,#4510);
#4530=CIRCLE('',#4520,16.);
#4540=CARTESIAN_POINT('',(16.,14.3,0.));
#4550=VERTEX_POINT('',#4540);
#4560=CARTESIAN_POINT('',(-16.,14.3,-1.95943487863577E-15));
#4570=VERTEX_POINT('',#4560);
#4580=EDGE_CURVE('',#4550,#4570,#4530,.T.);
#4590=ORIENTED_EDGE('',*,*,#4580,.T.);
#4600=EDGE_CURVE('',#4570,#4550,#4530,.T.);
#4610=ORIENTED_EDGE('',*,*,#4600,.T.);
#4620=EDGE_LOOP('',(#4610,#4590));
#4630=FACE_BOUND('',#4620,.T.);
#4640=CARTESIAN_POINT('',(0.,14.3,0.));
#4650=DIRECTION('',(0.,1.,0.));
#4660=DIRECTION('',(1.,0.,0.));
#4670=AXIS2_PLACEMENT_3D('',#4640,#4650,#4660);
#4680=CIRCLE('',#4670,25.);
#4690=CARTESIAN_POINT('',(25.,14.3,0.));
#4700=VERTEX_POINT('',#4690);
#4710=CARTESIAN_POINT('',(-25.,14.3,-3.06161699786838E-15));
#4720=VERTEX_POINT('',#4710);
#4730=EDGE_CURVE('',#4700,#4720,#4680,.T.);
#4740=ORIENTED_EDGE('',*,*,#4730,.F.);
#4750=EDGE_CURVE('',#4720,#4700,#4680,.T.);
#4760=ORIENTED_EDGE('',*,*,#4750,.F.);
#4770=EDGE_LOOP('',(#4760,#4740));
#4780=FACE_OUTER_BOUND('',#4770,.T.);
#4790=ADVANCED_FACE('',(#4630,#4780),#4480,.F.);
#4800=CARTESIAN_POINT('',(-32.35,16.,0.));
#4810=DIRECTION('',(-0.,1.,0.));
#4820=DIRECTION('',(1.,0.,0.));
#4830=AXIS2_PLACEMENT_3D('',#4800,#4810,#4820);
#4840=PLANE('',#4830);
#4850=CARTESIAN_POINT('',(0.,16.,0.));
#4860=DIRECTION('',(0.,1.,0.));
#4870=DIRECTION('',(1.,0.,0.));
#4880=AXIS2_PLACEMENT_3D('',#4850,#4860,#4870);
#4890=CIRCLE('',#4880,16.);
#4900=CARTESIAN_POINT('',(16.,16.,0.));
#4910=VERTEX_POINT('',#4900);
#4920=CARTESIAN_POINT('',(-16.,16.,-1.95943487863577E-15));
#4930=VERTEX_POINT('',#4920);
#4940=EDGE_CURVE('',#4910,#4930,#4890,.T.);
#4950=ORIENTED_EDGE('',*,*,#4940,.F.);
#4960=EDGE_CURVE('',#4930,#4910,#4890,.T.);
#4970=ORIENTED_EDGE('',*,*,#4960,.F.);
#4980=EDGE_LOOP('',(#4970,#4950));
#4990=FACE_BOUND('',#4980,.T.);
#5000=CARTESIAN_POINT('',(0.,16.,0.));
#5010=DIRECTION('',(0.,1.,0.));
#5020=DIRECTION('',(1.,0.,0.));
#5030=AXIS2_PLACEMENT_3D('',#5000,#5010,#5020);
#5040=CIRCLE('',#5030,25.);
#5050=CARTESIAN_POINT('',(25.,16.,0.));
#5060=VERTEX_POINT('',#5050);
#5070=CARTESIAN_POINT('',(-25.,16.,-3.06161699786838E-15));
#5080=VERTEX_POINT('',#5070);
#5090=EDGE_CURVE('',#5060,#5080,#5040,.T.);
#5100=ORIENTED_EDGE('',*,*,#5090,.T.);
#5110=EDGE_CURVE('',#5080,#5060,#5040,.T.);
#5120=ORIENTED_EDGE('',*,*,#5110,.T.);
#5130=EDGE_LOOP('',(#5120,#5100));
#5140=FACE_OUTER_BOUND('',#5130,.T.);
#5150=ADVANCED_FACE('',(#4990,#5140),#4840,.T.);
#5160=CARTESIAN_POINT('',(0.,14.3,0.));
#5170=DIRECTION('',(0.,1.,0.));
#5180=DIRECTION('',(1.,0.,0.));
#5190=AXIS2_PLACEMENT_3D('',#5160,#5170,#5180);
#5200=CYLINDRICAL_SURFACE('',#5190,25.);
#5210=CARTESIAN_POINT('',(25.,14.3,0.));
#5220=DIRECTION('',(0.,1.,0.));
#5230=VECTOR('',#5220,1.);
#5240=LINE('',#5210,#5230);
#5250=EDGE_CURVE('',#4700,#5060,#5240,.T.);
#5260=ORIENTED_EDGE('',*,*,#5250,.T.);
#5270=ORIENTED_EDGE('',*,*,#4750,.T.);
#5280=CARTESIAN_POINT('',(-25.,14.3,-3.06161699786838E-15));
#5290=DIRECTION('',(0.,1.,0.));
#5300=VECTOR('',#5290,1.);
#5310=LINE('',#5280,#5300);
#5320=EDGE_CURVE('',#4720,#5080,#5310,.T.);
#5330=ORIENTED_EDGE('',*,*,#5320,.F.);
#5340=ORIENTED_EDGE('',*,*,#5110,.F.);
#5350=EDGE_LOOP('',(#5340,#5330,#5270,#5260));
#5360=FACE_OUTER_BOUND('',#5350,.T.);
#5370=ADVANCED_FACE('',(#5360),#5200,.T.);
#5380=CARTESIAN_POINT('',(0.,14.3,0.));
#5390=DIRECTION('',(0.,1.,0.));
#5400=DIRECTION('',(1.,0.,0.));
#5410=AXIS2_PLACEMENT_3D('',#5380,#5390,#5400);
#5420=CYLINDRICAL_SURFACE('',#5410,25.);
#5430=ORIENTED_EDGE('',*,*,#5090,.F.);
#5440=ORIENTED_EDGE('',*,*,#5320,.T.);
#5450=ORIENTED_EDGE('',*,*,#4730,.T.);
#5460=ORIENTED_EDGE('',*,*,#5250,.F.);
#5470=EDGE_LOOP('',(#5460,#5450,#5440,#5430));
#5480=FACE_OUTER_BOUND('',#5470,.T.);
#5490=ADVANCED_FACE('',(#5480),#5420,.T.);
#5500=CARTESIAN_POINT('',(0.,14.3,0.));
#5510=DIRECTION('',(0.,1.,0.));
#5520=DIRECTION('',(1.,0.,0.));
#5530=AXIS2_PLACEMENT_3D('',#5500,#5510,#5520);
#5540=CYLINDRICAL_SURFACE('',#5530,16.);
#5550=CARTESIAN_POINT('',(-16.,14.3,-1.95943487863577E-15));
#5560=DIRECTION('',(0.,1.,0.));
#5570=VECTOR('',#5560,1.);
#5580=LINE('',#5550,#5570);
#5590=EDGE_CURVE('',#4570,#4930,#5580,.T.);
#5600=ORIENTED_EDGE('',*,*,#5590,.T.);
#5610=ORIENTED_EDGE('',*,*,#4600,.F.);
#5620=CARTESIAN_POINT('',(16.,14.3,0.));
#5630=DIRECTION('',(0.,1.,0.));
#5640=VECTOR('',#5630,1.);
#5650=LINE('',#5620,#5640);
#5660=EDGE_CURVE('',#4550,#4910,#5650,.T.);
#5670=ORIENTED_EDGE('',*,*,#5660,.F.);
#5680=ORIENTED_EDGE('',*,*,#4960,.T.);
#5690=EDGE_LOOP('',(#5680,#5670,#5610,#5600));
#5700=FACE_OUTER_BOUND('',#5690,.T.);
#5710=ADVANCED_FACE('',(#5700),#5540,.F.);
#5720=CARTESIAN_POINT('',(0.,14.3,0.));
#5730=DIRECTION('',(0.,1.,0.));
#5740=DIRECTION('',(1.,0.,0.));
#5750=AXIS2_PLACEMENT_3D('',#5720,#5730,#5740);
#5760=CYLINDRICAL_SURFACE('',#5750,16.);
#5770=ORIENTED_EDGE('',*,*,#4580,.F.);
#5780=ORIENTED_EDGE('',*,*,#5590,.F.);
#5790=ORIENTED_EDGE('',*,*,#4940,.T.);
#5800=ORIENTED_EDGE('',*,*,#5660,.T.);
#5810=EDGE_LOOP('',(#5800,#5790,#5780,#5770));
#5820=FACE_OUTER_BOUND('',#5810,.T.);
#5830=ADVANCED_FACE('',(#5820),#5760,.F.);
#5840=CLOSED_SHELL('',(#5370,#5490,#5710,#5830,#5150,#4790));
#5850=MANIFOLD_SOLID_BREP('',#5840);
#5860=APPLICATION_CONTEXT(' ');
#5870=APPLICATION_PROTOCOL_DEFINITION(' ','automotive_design',1998,#5860
);
#5880=PRODUCT_CONTEXT('',#5860,'mechanical');
#5890=PRODUCT_DEFINITION_CONTEXT('part definition',#5860,'design');
#5900=PRODUCT('Oberteil','Oberteil','',(#5880));
#5910=PRODUCT_RELATED_PRODUCT_CATEGORY('part',' ',(#5900));
#5920=PRODUCT_DEFINITION_FORMATION_WITH_SPECIFIED_SOURCE('','',#5900,
.BOUGHT.);
#5930=PRODUCT_DEFINITION('',' ',#5920,#5890);
#5940=PRODUCT_DEFINITION_SHAPE('','',#5930);
#5950=DIMENSIONAL_EXPONENTS(1.,0.,0.,0.,0.,0.,0.);
#5960=DIMENSIONAL_EXPONENTS(0.,0.,0.,0.,0.,0.,0.);
#5970=DIMENSIONAL_EXPONENTS(0.,0.,0.,0.,0.,0.,0.);
#5980=(LENGTH_UNIT() NAMED_UNIT(*) SI_UNIT(.MILLI.,.METRE.));
#5990=(NAMED_UNIT(*) PLANE_ANGLE_UNIT() SI_UNIT($,.RADIAN.));
#6000=(NAMED_UNIT(*) SI_UNIT($,.STERADIAN.) SOLID_ANGLE_UNIT());
#6010=(GEOMETRIC_REPRESENTATION_CONTEXT(3) 
GLOBAL_UNCERTAINTY_ASSIGNED_CONTEXT((#6020)) 
GLOBAL_UNIT_ASSIGNED_CONTEXT((#5980,#5990,#6000)) REPRESENTATION_CONTEXT
('',''));
#6020=UNCERTAINTY_MEASURE_WITH_UNIT(LENGTH_MEASURE(1.E-6),#5980,
'distance_accuracy_value','maximum gap value');
#6030=ADVANCED_BREP_SHAPE_REPRESENTATION('',(#4100,#5850),#6010);
#6040=SHAPE_DEFINITION_REPRESENTATION(#5940,#6030);
#6050=COLOUR_RGB('',0.600000023841858,0.600000023841858,
0.600000023841858);
#6060=FILL_AREA_STYLE_COLOUR('',#6050);
#6070=FILL_AREA_STYLE('',(#6060));
#6080=SURFACE_STYLE_FILL_AREA(#6070);
#6090=SURFACE_SIDE_STYLE('',(#6080));
#6100=SURFACE_STYLE_USAGE(.BOTH.,#6090);
#6110=PRESENTATION_STYLE_ASSIGNMENT((#6100));
#6120=STYLED_ITEM('',(#6110),#5850);
#6130=DRAUGHTING_MODEL('',(#6120),#6010);
#6140=CARTESIAN_POINT('',(-76.,0.,0.));
#6150=DIRECTION('',(0.,0.,1.));
#6160=DIRECTION('',(1.,0.,0.));
#6170=AXIS2_PLACEMENT_3D('',#6140,#6150,#6160);
#6180=ITEM_DEFINED_TRANSFORMATION('Oberteil','',#4100,#6170);
#6190=APPLICATION_CONTEXT(' ');
#6200=APPLICATION_PROTOCOL_DEFINITION(' ','automotive_design',1998,#6190
);
#6210=PRODUCT_CONTEXT('',#6190,'mechanical');
#6220=PRODUCT_DEFINITION_CONTEXT('part definition',#6190,'design');
#6230=PRODUCT('NI-9307','NI-9307','',(#6210));
#6240=PRODUCT_RELATED_PRODUCT_CATEGORY('part',' ',(#6230));
#6250=PRODUCT_DEFINITION_FORMATION_WITH_SPECIFIED_SOURCE('','',#6230,
.BOUGHT.);
#6260=PRODUCT_DEFINITION('',' ',#6250,#6220);
#6270=PRODUCT_DEFINITION_SHAPE('','',#6260);
#6280=DIMENSIONAL_EXPONENTS(1.,0.,0.,0.,0.,0.,0.);
#6290=DIMENSIONAL_EXPONENTS(0.,0.,0.,0.,0.,0.,0.);
#6300=DIMENSIONAL_EXPONENTS(0.,0.,0.,0.,0.,0.,0.);
#6310=(LENGTH_UNIT() NAMED_UNIT(*) SI_UNIT(.MILLI.,.METRE.));
#6320=(NAMED_UNIT(*) PLANE_ANGLE_UNIT() SI_UNIT($,.RADIAN.));
#6330=(NAMED_UNIT(*) SI_UNIT($,.STERADIAN.) SOLID_ANGLE_UNIT());
#6340=(GEOMETRIC_REPRESENTATION_CONTEXT(3) 
GLOBAL_UNCERTAINTY_ASSIGNED_CONTEXT((#6350)) 
GLOBAL_UNIT_ASSIGNED_CONTEXT((#6310,#6320,#6330)) REPRESENTATION_CONTEXT
('',''));
#6350=UNCERTAINTY_MEASURE_WITH_UNIT(LENGTH_MEASURE(1.E-6),#6310,
'distance_accuracy_value','maximum gap value');
#6360=SHAPE_REPRESENTATION('',(#4100,#6170,#4420),#6340);
#6370=SHAPE_DEFINITION_REPRESENTATION(#6270,#6360);
#6380=(REPRESENTATION_RELATIONSHIP('','',#6030,#6360) 
REPRESENTATION_RELATIONSHIP_WITH_TRANSFORMATION(#6180) 
SHAPE_REPRESENTATION_RELATIONSHIP());
#6390=NEXT_ASSEMBLY_USAGE_OCCURRENCE('1','','Oberteil',#6260,#5930,'');
#6400=PRODUCT_DEFINITION_SHAPE('','',#6390);
#6410=CONTEXT_DEPENDENT_SHAPE_REPRESENTATION(#6380,#6400);
#6420=(REPRESENTATION_RELATIONSHIP('','',#4280,#6360) 
REPRESENTATION_RELATIONSHIP_WITH_TRANSFORMATION(#4430) 
SHAPE_REPRESENTATION_RELATIONSHIP());
#6430=NEXT_ASSEMBLY_USAGE_OCCURRENCE('2','','Unterteil',#6260,#4180,'');
#6440=PRODUCT_DEFINITION_SHAPE('','',#6430);
#6450=CONTEXT_DEPENDENT_SHAPE_REPRESENTATION(#6420,#6440);
ENDSEC;
END-ISO-10303-21;
