ISO-10303-21;
HEADER;
FILE_DESCRIPTION(('Creo Elements/Direct Modeling STEP Export'),'2;1');
FILE_NAME('2287.stp','2022-05-04T10:36:25',(''),(''),
'Creo Elements/Direct Modeling STEP processor for AP214 (Solid Model)',
'Creo Elements/Direct Modeling 20.0  12-Nov-2016 (C) Parametric Technolo
gy GmbH','');
FILE_SCHEMA(('AUTOMOTIVE_DESIGN { 1 0 10303 214 1 1 1 1 }'));
ENDSEC;
DATA;
#10=CARTESIAN_POINT('',(-3.8,0.,0.));
#20=DIRECTION('',(-0.,1.,0.));
#30=DIRECTION('',(1.,0.,0.));
#40=AXIS2_PLACEMENT_3D('',#10,#20,#30);
#50=PLANE('',#40);
#60=CARTESIAN_POINT('',(-7.6,1.06581410364015E-14,0.));
#70=DIRECTION('',(0.,-1.,0.));
#80=DIRECTION('',(1.,0.,0.));
#90=AXIS2_PLACEMENT_3D('',#60,#70,#80);
#100=CIRCLE('',#90,6.49354913069235);
#110=CARTESIAN_POINT('',(-1.10645086930766,2.8421709430404E-14,0.));
#120=VERTEX_POINT('',#110);
#130=CARTESIAN_POINT('',(-14.0935491306923,2.8421709430404E-14,0.));
#140=VERTEX_POINT('',#130);
#150=EDGE_CURVE('',#120,#140,#100,.T.);
#160=ORIENTED_EDGE('',*,*,#150,.F.);
#170=EDGE_CURVE('',#140,#120,#100,.T.);
#180=ORIENTED_EDGE('',*,*,#170,.F.);
#190=EDGE_LOOP('',(#180,#160));
#200=FACE_BOUND('',#190,.T.);
#210=CARTESIAN_POINT('',(-7.6,-7.105427357601E-15,0.));
#220=DIRECTION('',(0.,1.,0.));
#230=DIRECTION('',(1.,0.,0.));
#240=AXIS2_PLACEMENT_3D('',#210,#220,#230);
#250=CIRCLE('',#240,7.6);
#260=CARTESIAN_POINT('',(0.,-7.105427357601E-15,0.));
#270=VERTEX_POINT('',#260);
#280=CARTESIAN_POINT('',(-15.2,-7.105427357601E-15,0.));
#290=VERTEX_POINT('',#280);
#300=EDGE_CURVE('',#270,#290,#250,.T.);
#310=ORIENTED_EDGE('',*,*,#300,.F.);
#320=EDGE_CURVE('',#290,#270,#250,.T.);
#330=ORIENTED_EDGE('',*,*,#320,.F.);
#340=EDGE_LOOP('',(#330,#310));
#350=FACE_OUTER_BOUND('',#340,.T.);
#360=ADVANCED_FACE('',(#200,#350),#50,.F.);
#370=CARTESIAN_POINT('',(-7.6,18.,0.));
#380=DIRECTION('',(0.,1.,0.));
#390=DIRECTION('',(1.,0.,0.));
#400=AXIS2_PLACEMENT_3D('',#370,#380,#390);
#410=TOROIDAL_SURFACE('',#400,45.0621951219512,41.5621951219512);
#420=CARTESIAN_POINT('',(37.4621951219512,18.,0.));
#430=DIRECTION('',(0.,0.,-1.));
#440=DIRECTION('',(1.,0.,0.));
#450=AXIS2_PLACEMENT_3D('',#420,#430,#440);
#460=CIRCLE('',#450,41.5621951219512);
#470=CARTESIAN_POINT('',(-4.1,18.,0.));
#480=VERTEX_POINT('',#470);
#490=EDGE_CURVE('',#270,#480,#460,.T.);
#500=ORIENTED_EDGE('',*,*,#490,.T.);
#510=ORIENTED_EDGE('',*,*,#320,.T.);
#520=CARTESIAN_POINT('',(-52.6621951219512,18.,0.));
#530=DIRECTION('',(0.,0.,1.));
#540=DIRECTION('',(-1.,0.,0.));
#550=AXIS2_PLACEMENT_3D('',#520,#530,#540);
#560=CIRCLE('',#550,41.5621951219512);
#570=CARTESIAN_POINT('',(-11.1,18.,0.));
#580=VERTEX_POINT('',#570);
#590=EDGE_CURVE('',#290,#580,#560,.T.);
#600=ORIENTED_EDGE('',*,*,#590,.F.);
#610=CARTESIAN_POINT('',(-7.6,18.,0.));
#620=DIRECTION('',(0.,1.,0.));
#630=DIRECTION('',(1.,0.,0.));
#640=AXIS2_PLACEMENT_3D('',#610,#620,#630);
#650=CIRCLE('',#640,3.5);
#660=EDGE_CURVE('',#580,#480,#650,.T.);
#670=ORIENTED_EDGE('',*,*,#660,.F.);
#680=EDGE_LOOP('',(#670,#600,#510,#500));
#690=FACE_OUTER_BOUND('',#680,.T.);
#700=ADVANCED_FACE('',(#690),#410,.F.);
#710=CARTESIAN_POINT('',(-7.6,24.75,0.));
#720=DIRECTION('',(0.,-1.,0.));
#730=DIRECTION('',(-1.,0.,0.));
#740=AXIS2_PLACEMENT_3D('',#710,#720,#730);
#750=CYLINDRICAL_SURFACE('',#740,3.5);
#760=CARTESIAN_POINT('',(-11.1,24.75,0.));
#770=DIRECTION('',(0.,-1.,0.));
#780=VECTOR('',#770,1.);
#790=LINE('',#760,#780);
#800=CARTESIAN_POINT('',(-11.1,31.5,0.));
#810=VERTEX_POINT('',#800);
#820=EDGE_CURVE('',#810,#580,#790,.T.);
#830=ORIENTED_EDGE('',*,*,#820,.F.);
#840=EDGE_CURVE('',#480,#580,#650,.T.);
#850=ORIENTED_EDGE('',*,*,#840,.T.);
#860=CARTESIAN_POINT('',(-4.1,24.75,-4.28626379701574E-16));
#870=DIRECTION('',(0.,-1.,0.));
#880=VECTOR('',#870,1.);
#890=LINE('',#860,#880);
#900=CARTESIAN_POINT('',(-4.1,31.5,-4.28626379701574E-16));
#910=VERTEX_POINT('',#900);
#920=EDGE_CURVE('',#910,#480,#890,.T.);
#930=ORIENTED_EDGE('',*,*,#920,.T.);
#940=CARTESIAN_POINT('',(-7.6,31.5,0.));
#950=DIRECTION('',(0.,-1.,0.));
#960=DIRECTION('',(-1.,0.,0.));
#970=AXIS2_PLACEMENT_3D('',#940,#950,#960);
#980=CIRCLE('',#970,3.5);
#990=EDGE_CURVE('',#810,#910,#980,.T.);
#1000=ORIENTED_EDGE('',*,*,#990,.T.);
#1010=EDGE_LOOP('',(#1000,#930,#850,#830));
#1020=FACE_OUTER_BOUND('',#1010,.T.);
#1030=ADVANCED_FACE('',(#1020),#750,.T.);
#1040=CARTESIAN_POINT('',(-3.25,31.5,0.));
#1050=DIRECTION('',(-0.,1.,0.));
#1060=DIRECTION('',(1.,0.,0.));
#1070=AXIS2_PLACEMENT_3D('',#1040,#1050,#1060);
#1080=PLANE('',#1070);
#1090=EDGE_CURVE('',#910,#810,#980,.T.);
#1100=ORIENTED_EDGE('',*,*,#1090,.F.);
#1110=ORIENTED_EDGE('',*,*,#990,.F.);
#1120=EDGE_LOOP('',(#1110,#1100));
#1130=FACE_BOUND('',#1120,.T.);
#1140=CARTESIAN_POINT('',(-7.6,31.5,0.));
#1150=DIRECTION('',(0.,1.,0.));
#1160=DIRECTION('',(1.,0.,0.));
#1170=AXIS2_PLACEMENT_3D('',#1140,#1150,#1160);
#1180=CIRCLE('',#1170,5.2);
#1190=CARTESIAN_POINT('',(-2.4,31.5,0.));
#1200=VERTEX_POINT('',#1190);
#1210=CARTESIAN_POINT('',(-12.8,31.5,-6.36816335556624E-16));
#1220=VERTEX_POINT('',#1210);
#1230=EDGE_CURVE('',#1200,#1220,#1180,.T.);
#1240=ORIENTED_EDGE('',*,*,#1230,.F.);
#1250=EDGE_CURVE('',#1220,#1200,#1180,.T.);
#1260=ORIENTED_EDGE('',*,*,#1250,.F.);
#1270=EDGE_LOOP('',(#1260,#1240));
#1280=FACE_OUTER_BOUND('',#1270,.T.);
#1290=ADVANCED_FACE('',(#1130,#1280),#1080,.F.);
#1300=CARTESIAN_POINT('',(-7.6,32.85,0.));
#1310=DIRECTION('',(0.,1.,0.));
#1320=DIRECTION('',(1.,0.,0.));
#1330=AXIS2_PLACEMENT_3D('',#1300,#1310,#1320);
#1340=CYLINDRICAL_SURFACE('',#1330,5.2);
#1350=CARTESIAN_POINT('',(-2.4,32.85,0.));
#1360=DIRECTION('',(0.,1.,0.));
#1370=VECTOR('',#1360,1.);
#1380=LINE('',#1350,#1370);
#1390=CARTESIAN_POINT('',(-2.4,34.2,0.));
#1400=VERTEX_POINT('',#1390);
#1410=EDGE_CURVE('',#1200,#1400,#1380,.T.);
#1420=ORIENTED_EDGE('',*,*,#1410,.T.);
#1430=ORIENTED_EDGE('',*,*,#1250,.T.);
#1440=CARTESIAN_POINT('',(-12.8,32.85,-6.36816335556624E-16));
#1450=DIRECTION('',(0.,1.,0.));
#1460=VECTOR('',#1450,1.);
#1470=LINE('',#1440,#1460);
#1480=CARTESIAN_POINT('',(-12.8,34.2,-6.36816335556624E-16));
#1490=VERTEX_POINT('',#1480);
#1500=EDGE_CURVE('',#1220,#1490,#1470,.T.);
#1510=ORIENTED_EDGE('',*,*,#1500,.F.);
#1520=CARTESIAN_POINT('',(-7.6,34.2,0.));
#1530=DIRECTION('',(0.,1.,0.));
#1540=DIRECTION('',(1.,0.,0.));
#1550=AXIS2_PLACEMENT_3D('',#1520,#1530,#1540);
#1560=CIRCLE('',#1550,5.2);
#1570=EDGE_CURVE('',#1490,#1400,#1560,.T.);
#1580=ORIENTED_EDGE('',*,*,#1570,.F.);
#1590=EDGE_LOOP('',(#1580,#1510,#1430,#1420));
#1600=FACE_OUTER_BOUND('',#1590,.T.);
#1610=ADVANCED_FACE('',(#1600),#1340,.T.);
#1620=CARTESIAN_POINT('',(-1.95,34.2,0.));
#1630=DIRECTION('',(-0.,1.,0.));
#1640=DIRECTION('',(1.,0.,0.));
#1650=AXIS2_PLACEMENT_3D('',#1620,#1630,#1640);
#1660=PLANE('',#1650);
#1670=EDGE_CURVE('',#1400,#1490,#1560,.T.);
#1680=ORIENTED_EDGE('',*,*,#1670,.T.);
#1690=ORIENTED_EDGE('',*,*,#1570,.T.);
#1700=EDGE_LOOP('',(#1690,#1680));
#1710=FACE_BOUND('',#1700,.T.);
#1720=CARTESIAN_POINT('',(-7.6,34.2,0.));
#1730=DIRECTION('',(0.,1.,0.));
#1740=DIRECTION('',(1.,0.,0.));
#1750=AXIS2_PLACEMENT_3D('',#1720,#1730,#1740);
#1760=CIRCLE('',#1750,6.1);
#1770=CARTESIAN_POINT('',(-1.5,34.2,0.));
#1780=VERTEX_POINT('',#1770);
#1790=CARTESIAN_POINT('',(-13.7,34.2,-7.47034547479885E-16));
#1800=VERTEX_POINT('',#1790);
#1810=EDGE_CURVE('',#1780,#1800,#1760,.T.);
#1820=ORIENTED_EDGE('',*,*,#1810,.F.);
#1830=EDGE_CURVE('',#1800,#1780,#1760,.T.);
#1840=ORIENTED_EDGE('',*,*,#1830,.F.);
#1850=EDGE_LOOP('',(#1840,#1820));
#1860=FACE_OUTER_BOUND('',#1850,.T.);
#1870=ADVANCED_FACE('',(#1710,#1860),#1660,.F.);
#1880=CARTESIAN_POINT('',(-7.6,35.3,0.));
#1890=DIRECTION('',(0.,1.,0.));
#1900=DIRECTION('',(1.,0.,0.));
#1910=AXIS2_PLACEMENT_3D('',#1880,#1890,#1900);
#1920=CYLINDRICAL_SURFACE('',#1910,6.1);
#1930=CARTESIAN_POINT('',(-1.5,35.3,0.));
#1940=DIRECTION('',(0.,1.,0.));
#1950=VECTOR('',#1940,1.);
#1960=LINE('',#1930,#1950);
#1970=CARTESIAN_POINT('',(-1.5,36.4,0.));
#1980=VERTEX_POINT('',#1970);
#1990=EDGE_CURVE('',#1780,#1980,#1960,.T.);
#2000=ORIENTED_EDGE('',*,*,#1990,.T.);
#2010=ORIENTED_EDGE('',*,*,#1830,.T.);
#2020=CARTESIAN_POINT('',(-13.7,35.3,-7.47034547479885E-16));
#2030=DIRECTION('',(0.,1.,0.));
#2040=VECTOR('',#2030,1.);
#2050=LINE('',#2020,#2040);
#2060=CARTESIAN_POINT('',(-13.7,36.4,0.));
#2070=VERTEX_POINT('',#2060);
#2080=EDGE_CURVE('',#1800,#2070,#2050,.T.);
#2090=ORIENTED_EDGE('',*,*,#2080,.F.);
#2100=CARTESIAN_POINT('',(-7.6,36.4,0.));
#2110=DIRECTION('',(0.,1.,0.));
#2120=DIRECTION('',(1.,0.,0.));
#2130=AXIS2_PLACEMENT_3D('',#2100,#2110,#2120);
#2140=CIRCLE('',#2130,6.1);
#2150=EDGE_CURVE('',#2070,#1980,#2140,.T.);
#2160=ORIENTED_EDGE('',*,*,#2150,.F.);
#2170=EDGE_LOOP('',(#2160,#2090,#2010,#2000));
#2180=FACE_OUTER_BOUND('',#2170,.T.);
#2190=ADVANCED_FACE('',(#2180),#1920,.T.);
#2200=CARTESIAN_POINT('',(-7.6,43.2200073313744,0.));
#2210=DIRECTION('',(0.,1.,0.));
#2220=DIRECTION('',(1.,0.,0.));
#2230=AXIS2_PLACEMENT_3D('',#2200,#2210,#2220);
#2240=SPHERICAL_SURFACE('',#2230,9.15);
#2250=CARTESIAN_POINT('',(-7.6,43.2200073313744,0.));
#2260=DIRECTION('',(0.,0.,-1.));
#2270=DIRECTION('',(1.,-0.,0.));
#2280=AXIS2_PLACEMENT_3D('',#2250,#2260,#2270);
#2290=CIRCLE('',#2280,9.15);
#2300=CARTESIAN_POINT('',(-7.6,52.3700073313744,0.));
#2310=VERTEX_POINT('',#2300);
#2320=EDGE_CURVE('',#2070,#2310,#2290,.T.);
#2330=ORIENTED_EDGE('',*,*,#2320,.F.);
#2340=EDGE_CURVE('',#2310,#1980,#2290,.T.);
#2350=ORIENTED_EDGE('',*,*,#2340,.F.);
#2360=ORIENTED_EDGE('',*,*,#2150,.T.);
#2370=EDGE_LOOP('',(#2360,#2350,#2330));
#2380=FACE_OUTER_BOUND('',#2370,.T.);
#2390=ADVANCED_FACE('',(#2380),#2240,.T.);
#2400=CARTESIAN_POINT('',(-7.6,4.81313685473468,0.));
#2410=DIRECTION('',(0.,-1.,0.));
#2420=DIRECTION('',(-1.,0.,0.));
#2430=AXIS2_PLACEMENT_3D('',#2400,#2410,#2420);
#2440=TOROIDAL_SURFACE('',#2430,4.38404408191657,0.2);
#2450=CARTESIAN_POINT('',(-11.9840440819166,4.81313685473468,0.));
#2460=DIRECTION('',(0.,0.,-1.));
#2470=DIRECTION('',(-1.,0.,0.));
#2480=AXIS2_PLACEMENT_3D('',#2450,#2460,#2470);
#2490=CIRCLE('',#2480,0.2);
#2500=CARTESIAN_POINT('',(-12.1742969486089,4.87481218785384,0.));
#2510=VERTEX_POINT('',#2500);
#2520=CARTESIAN_POINT('',(-11.7840745428853,4.81662733602214,0.));
#2530=VERTEX_POINT('',#2520);
#2540=EDGE_CURVE('',#2510,#2530,#2490,.T.);
#2550=ORIENTED_EDGE('',*,*,#2540,.F.);
#2560=CARTESIAN_POINT('',(-7.6,4.81662733602214,0.));
#2570=DIRECTION('',(0.,-1.,0.));
#2580=DIRECTION('',(-1.,0.,0.));
#2590=AXIS2_PLACEMENT_3D('',#2560,#2570,#2580);
#2600=CIRCLE('',#2590,4.18407454288529);
#2610=CARTESIAN_POINT('',(-3.41592545711471,4.81662733602213,0.));
#2620=VERTEX_POINT('',#2610);
#2630=EDGE_CURVE('',#2530,#2620,#2600,.T.);
#2640=ORIENTED_EDGE('',*,*,#2630,.F.);
#2650=CARTESIAN_POINT('',(-3.21595591808343,4.81313685473468,0.));
#2660=DIRECTION('',(-0.,0.,1.));
#2670=DIRECTION('',(1.,0.,0.));
#2680=AXIS2_PLACEMENT_3D('',#2650,#2660,#2670);
#2690=CIRCLE('',#2680,0.2);
#2700=CARTESIAN_POINT('',(-3.02570305139113,4.87481218785387,0.));
#2710=VERTEX_POINT('',#2700);
#2720=EDGE_CURVE('',#2710,#2620,#2690,.T.);
#2730=ORIENTED_EDGE('',*,*,#2720,.T.);
#2740=CARTESIAN_POINT('',(-7.6,4.87481218785384,0.));
#2750=DIRECTION('',(0.,-1.,0.));
#2760=DIRECTION('',(-1.,0.,0.));
#2770=AXIS2_PLACEMENT_3D('',#2740,#2750,#2760);
#2780=CIRCLE('',#2770,4.57429694860888);
#2790=EDGE_CURVE('',#2510,#2710,#2780,.T.);
#2800=ORIENTED_EDGE('',*,*,#2790,.T.);
#2810=EDGE_LOOP('',(#2800,#2730,#2640,#2550));
#2820=FACE_OUTER_BOUND('',#2810,.T.);
#2830=ADVANCED_FACE('',(#2820),#2440,.F.);
#2840=CARTESIAN_POINT('',(-7.6,6.07067344568456,0.));
#2850=DIRECTION('',(0.,1.,0.));
#2860=DIRECTION('',(1.,0.,0.));
#2870=AXIS2_PLACEMENT_3D('',#2840,#2850,#2860);
#2880=CONICAL_SURFACE('',#2870,4.20596399915243,0.0174532925199434);
#2890=CARTESIAN_POINT('',(-11.8059639991524,6.07067344568456,
-5.15082034889103E-16));
#2900=DIRECTION('',(-0.0174524064372836,0.999847695156391,
-2.1373033680838E-18));
#2910=VECTOR('',#2900,240.99622102355);
#2920=LINE('',#2890,#2910);
#2930=CARTESIAN_POINT('',(-11.7,1.77635683940025E-15,
-5.02105187650415E-16));
#2940=VERTEX_POINT('',#2930);
#2950=EDGE_CURVE('',#2940,#2530,#2920,.T.);
#2960=ORIENTED_EDGE('',*,*,#2950,.F.);
#2970=EDGE_CURVE('',#2620,#2530,#2600,.T.);
#2980=ORIENTED_EDGE('',*,*,#2970,.T.);
#2990=CARTESIAN_POINT('',(-3.39403600084757,6.07067344568456,0.));
#3000=DIRECTION('',(0.0174524064372836,0.999847695156391,0.));
#3010=VECTOR('',#3000,240.99622102355);
#3020=LINE('',#2990,#3010);
#3030=CARTESIAN_POINT('',(-3.5,1.77635683940025E-15,0.));
#3040=VERTEX_POINT('',#3030);
#3050=EDGE_CURVE('',#3040,#2620,#3020,.T.);
#3060=ORIENTED_EDGE('',*,*,#3050,.T.);
#3070=CARTESIAN_POINT('',(-7.6,2.66453525910038E-15,0.));
#3080=DIRECTION('',(0.,1.,0.));
#3090=DIRECTION('',(1.,0.,0.));
#3100=AXIS2_PLACEMENT_3D('',#3070,#3080,#3090);
#3110=CIRCLE('',#3100,4.1);
#3120=EDGE_CURVE('',#2940,#3040,#3110,.T.);
#3130=ORIENTED_EDGE('',*,*,#3120,.T.);
#3140=EDGE_LOOP('',(#3130,#3060,#2980,#2960));
#3150=FACE_OUTER_BOUND('',#3140,.T.);
#3160=ADVANCED_FACE('',(#3150),#2880,.T.);
#3170=CARTESIAN_POINT('',(-7.6,0.,0.));
#3180=DIRECTION('',(0.,-1.,0.));
#3190=DIRECTION('',(-1.,0.,0.));
#3200=AXIS2_PLACEMENT_3D('',#3170,#3180,#3190);
#3210=CIRCLE('',#3200,2.5);
#3220=CARTESIAN_POINT('',(-5.1,-6.66133814775094E-16,
-3.06161699786838E-16));
#3230=VERTEX_POINT('',#3220);
#3240=CARTESIAN_POINT('',(-10.1,0.,0.));
#3250=VERTEX_POINT('',#3240);
#3260=EDGE_CURVE('',#3230,#3250,#3210,.T.);
#3270=ORIENTED_EDGE('',*,*,#3260,.F.);
#3280=EDGE_CURVE('',#3250,#3230,#3210,.T.);
#3290=ORIENTED_EDGE('',*,*,#3280,.F.);
#3300=EDGE_LOOP('',(#3290,#3270));
#3310=FACE_BOUND('',#3300,.T.);
#3320=EDGE_CURVE('',#3040,#2940,#3110,.T.);
#3330=ORIENTED_EDGE('',*,*,#3320,.F.);
#3340=ORIENTED_EDGE('',*,*,#3120,.F.);
#3350=EDGE_LOOP('',(#3340,#3330));
#3360=FACE_OUTER_BOUND('',#3350,.T.);
#3370=ADVANCED_FACE('',(#3310,#3360),#50,.F.);
#3380=CARTESIAN_POINT('',(-7.6,8.5,0.));
#3390=DIRECTION('',(0.,-1.,0.));
#3400=DIRECTION('',(1.,0.,0.));
#3410=AXIS2_PLACEMENT_3D('',#3380,#3390,#3400);
#3420=CYLINDRICAL_SURFACE('',#3410,1.635);
#3430=CARTESIAN_POINT('',(-5.965,8.5,0.));
#3440=DIRECTION('',(0.,-1.,0.));
#3450=VECTOR('',#3440,1.);
#3460=LINE('',#3430,#3450);
#3470=CARTESIAN_POINT('',(-5.965,10.,0.));
#3480=VERTEX_POINT('',#3470);
#3490=CARTESIAN_POINT('',(-5.965,7.,0.));
#3500=VERTEX_POINT('',#3490);
#3510=EDGE_CURVE('',#3480,#3500,#3460,.T.);
#3520=ORIENTED_EDGE('',*,*,#3510,.T.);
#3530=CARTESIAN_POINT('',(-7.6,10.,0.));
#3540=DIRECTION('',(0.,1.,0.));
#3550=DIRECTION('',(1.,0.,0.));
#3560=AXIS2_PLACEMENT_3D('',#3530,#3540,#3550);
#3570=CIRCLE('',#3560,1.635);
#3580=CARTESIAN_POINT('',(-9.235,10.,2.00229751660592E-16));
#3590=VERTEX_POINT('',#3580);
#3600=EDGE_CURVE('',#3590,#3480,#3570,.T.);
#3610=ORIENTED_EDGE('',*,*,#3600,.T.);
#3620=CARTESIAN_POINT('',(-9.235,8.5,2.00229751660592E-16));
#3630=DIRECTION('',(0.,-1.,0.));
#3640=VECTOR('',#3630,1.);
#3650=LINE('',#3620,#3640);
#3660=CARTESIAN_POINT('',(-9.235,7.,2.00229751660592E-16));
#3670=VERTEX_POINT('',#3660);
#3680=EDGE_CURVE('',#3590,#3670,#3650,.T.);
#3690=ORIENTED_EDGE('',*,*,#3680,.F.);
#3700=CARTESIAN_POINT('',(-7.6,7.,0.));
#3710=DIRECTION('',(0.,1.,0.));
#3720=DIRECTION('',(1.,0.,0.));
#3730=AXIS2_PLACEMENT_3D('',#3700,#3710,#3720);
#3740=CIRCLE('',#3730,1.635);
#3750=EDGE_CURVE('',#3670,#3500,#3740,.T.);
#3760=ORIENTED_EDGE('',*,*,#3750,.F.);
#3770=EDGE_LOOP('',(#3760,#3690,#3610,#3520));
#3780=FACE_OUTER_BOUND('',#3770,.T.);
#3790=ADVANCED_FACE('',(#3780),#3420,.F.);
#3800=CARTESIAN_POINT('',(-7.6,10.,0.));
#3810=DIRECTION('',(0.,-1.,0.));
#3820=DIRECTION('',(1.,0.,0.));
#3830=AXIS2_PLACEMENT_3D('',#3800,#3810,#3820);
#3840=CONICAL_SURFACE('',#3830,1.635,1.02974425867666);
#3850=CARTESIAN_POINT('',(-5.965,10.,0.));
#3860=DIRECTION('',(0.857167300702112,-0.515038074910054,0.));
#3870=VECTOR('',#3860,1.90744560444706);
#3880=LINE('',#3850,#3870);
#3890=CARTESIAN_POINT('',(-7.6,10.9824071121101,2.46519032881566E-32));
#3900=VERTEX_POINT('',#3890);
#3910=EDGE_CURVE('',#3900,#3480,#3880,.T.);
#3920=ORIENTED_EDGE('',*,*,#3910,.T.);
#3930=CARTESIAN_POINT('',(-9.235,10.,2.00229751660592E-16));
#3940=DIRECTION('',(-0.857167300702112,-0.515038074910054,
1.04972719113862E-16));
#3950=VECTOR('',#3940,1.90744560444706);
#3960=LINE('',#3930,#3950);
#3970=EDGE_CURVE('',#3900,#3590,#3960,.T.);
#3980=ORIENTED_EDGE('',*,*,#3970,.F.);
#3990=ORIENTED_EDGE('',*,*,#3600,.F.);
#4000=EDGE_LOOP('',(#3990,#3980,#3920));
#4010=FACE_OUTER_BOUND('',#4000,.T.);
#4020=ADVANCED_FACE('',(#4010),#3840,.F.);
#4030=CARTESIAN_POINT('',(-7.6,18.,0.));
#4040=DIRECTION('',(0.,-1.,0.));
#4050=DIRECTION('',(1.,0.,0.));
#4060=AXIS2_PLACEMENT_3D('',#4030,#4040,#4050);
#4070=TOROIDAL_SURFACE('',#4060,45.0621951219512,42.5621951219512);
#4080=CARTESIAN_POINT('',(37.4621951219512,18.,0.));
#4090=DIRECTION('',(0.,0.,1.));
#4100=DIRECTION('',(1.,0.,0.));
#4110=AXIS2_PLACEMENT_3D('',#4080,#4090,#4100);
#4120=CIRCLE('',#4110,42.5621951219512);
#4130=EDGE_CURVE('',#2710,#120,#4120,.T.);
#4140=ORIENTED_EDGE('',*,*,#4130,.F.);
#4150=ORIENTED_EDGE('',*,*,#170,.T.);
#4160=CARTESIAN_POINT('',(-52.6621951219512,18.,0.));
#4170=DIRECTION('',(0.,0.,-1.));
#4180=DIRECTION('',(-1.,0.,0.));
#4190=AXIS2_PLACEMENT_3D('',#4160,#4170,#4180);
#4200=CIRCLE('',#4190,42.5621951219512);
#4210=EDGE_CURVE('',#2510,#140,#4200,.T.);
#4220=ORIENTED_EDGE('',*,*,#4210,.T.);
#4230=ORIENTED_EDGE('',*,*,#2790,.F.);
#4240=EDGE_LOOP('',(#4230,#4220,#4150,#4140));
#4250=FACE_OUTER_BOUND('',#4240,.T.);
#4260=ADVANCED_FACE('',(#4250),#4070,.T.);
#4270=CARTESIAN_POINT('',(-7.6,3.5,0.));
#4280=DIRECTION('',(0.,-1.,0.));
#4290=DIRECTION('',(1.,0.,0.));
#4300=AXIS2_PLACEMENT_3D('',#4270,#4280,#4290);
#4310=CYLINDRICAL_SURFACE('',#4300,1.65);
#4320=CARTESIAN_POINT('',(-9.25,3.5,2.02066721859313E-16));
#4330=DIRECTION('',(0.,-1.,0.));
#4340=VECTOR('',#4330,1.);
#4350=LINE('',#4320,#4340);
#4360=CARTESIAN_POINT('',(-9.25,7.,2.02066721859313E-16));
#4370=VERTEX_POINT('',#4360);
#4380=CARTESIAN_POINT('',(-9.25,0.85,2.02066721859313E-16));
#4390=VERTEX_POINT('',#4380);
#4400=EDGE_CURVE('',#4370,#4390,#4350,.T.);
#4410=ORIENTED_EDGE('',*,*,#4400,.T.);
#4420=CARTESIAN_POINT('',(-7.6,7.,0.));
#4430=DIRECTION('',(0.,1.,0.));
#4440=DIRECTION('',(1.,0.,0.));
#4450=AXIS2_PLACEMENT_3D('',#4420,#4430,#4440);
#4460=CIRCLE('',#4450,1.65);
#4470=CARTESIAN_POINT('',(-5.95,7.,0.));
#4480=VERTEX_POINT('',#4470);
#4490=EDGE_CURVE('',#4480,#4370,#4460,.T.);
#4500=ORIENTED_EDGE('',*,*,#4490,.T.);
#4510=CARTESIAN_POINT('',(-5.95,3.5,0.));
#4520=DIRECTION('',(0.,-1.,0.));
#4530=VECTOR('',#4520,1.);
#4540=LINE('',#4510,#4530);
#4550=CARTESIAN_POINT('',(-5.95,0.850000000000001,0.));
#4560=VERTEX_POINT('',#4550);
#4570=EDGE_CURVE('',#4480,#4560,#4540,.T.);
#4580=ORIENTED_EDGE('',*,*,#4570,.F.);
#4590=CARTESIAN_POINT('',(-7.6,0.85,0.));
#4600=DIRECTION('',(0.,-1.,0.));
#4610=DIRECTION('',(-1.,0.,0.));
#4620=AXIS2_PLACEMENT_3D('',#4590,#4600,#4610);
#4630=CIRCLE('',#4620,1.65);
#4640=EDGE_CURVE('',#4390,#4560,#4630,.T.);
#4650=ORIENTED_EDGE('',*,*,#4640,.T.);
#4660=EDGE_LOOP('',(#4650,#4580,#4500,#4410));
#4670=FACE_OUTER_BOUND('',#4660,.T.);
#4680=ADVANCED_FACE('M4-0.7_687036',(#4670),#4310,.F.);
#4690=COLOUR_RGB('',1.,0.,0.);
#4700=FILL_AREA_STYLE_COLOUR('',#4690);
#4710=FILL_AREA_STYLE('',(#4700));
#4720=SURFACE_STYLE_FILL_AREA(#4710);
#4730=SURFACE_SIDE_STYLE('',(#4720));
#4740=SURFACE_STYLE_USAGE(.BOTH.,#4730);
#4750=PRESENTATION_STYLE_ASSIGNMENT((#4740));
#4760=CARTESIAN_POINT('',(-5.9575,7.,0.));
#4770=DIRECTION('',(0.,-1.,0.));
#4780=DIRECTION('',(1.,0.,0.));
#4790=AXIS2_PLACEMENT_3D('',#4760,#4770,#4780);
#4800=PLANE('',#4790);
#4810=EDGE_CURVE('',#3500,#3670,#3740,.T.);
#4820=ORIENTED_EDGE('',*,*,#4810,.T.);
#4830=ORIENTED_EDGE('',*,*,#3750,.T.);
#4840=EDGE_LOOP('',(#4830,#4820));
#4850=FACE_BOUND('',#4840,.T.);
#4860=ORIENTED_EDGE('',*,*,#4490,.F.);
#4870=EDGE_CURVE('',#4370,#4480,#4460,.T.);
#4880=ORIENTED_EDGE('',*,*,#4870,.F.);
#4890=EDGE_LOOP('',(#4880,#4860));
#4900=FACE_OUTER_BOUND('',#4890,.T.);
#4910=ADVANCED_FACE('',(#4850,#4900),#4800,.T.);
#4920=CARTESIAN_POINT('',(-7.6,0.85,0.));
#4930=DIRECTION('',(0.,-1.,0.));
#4940=DIRECTION('',(-1.,0.,0.));
#4950=AXIS2_PLACEMENT_3D('',#4920,#4930,#4940);
#4960=CONICAL_SURFACE('',#4950,1.65,0.785398163397448);
#4970=CARTESIAN_POINT('',(-5.95,0.85,-2.02066721859313E-16));
#4980=DIRECTION('',(0.707106781186547,-0.707106781186548,
-8.65956056235493E-17));
#4990=VECTOR('',#4980,2.33345237791561);
#5000=LINE('',#4970,#4990);
#5010=EDGE_CURVE('',#4560,#3230,#5000,.T.);
#5020=ORIENTED_EDGE('',*,*,#5010,.F.);
#5030=ORIENTED_EDGE('',*,*,#3280,.T.);
#5040=CARTESIAN_POINT('',(-9.25,0.85,0.));
#5050=DIRECTION('',(-0.707106781186547,-0.707106781186548,0.));
#5060=VECTOR('',#5050,2.33345237791561);
#5070=LINE('',#5040,#5060);
#5080=EDGE_CURVE('',#4390,#3250,#5070,.T.);
#5090=ORIENTED_EDGE('',*,*,#5080,.T.);
#5100=ORIENTED_EDGE('',*,*,#4640,.F.);
#5110=EDGE_LOOP('',(#5100,#5090,#5030,#5020));
#5120=FACE_OUTER_BOUND('',#5110,.T.);
#5130=ADVANCED_FACE('',(#5120),#4960,.F.);
#5140=CARTESIAN_POINT('',(-7.6,24.75,0.));
#5150=DIRECTION('',(0.,-1.,0.));
#5160=DIRECTION('',(-1.,0.,0.));
#5170=AXIS2_PLACEMENT_3D('',#5140,#5150,#5160);
#5180=CYLINDRICAL_SURFACE('',#5170,3.5);
#5190=ORIENTED_EDGE('',*,*,#820,.T.);
#5200=ORIENTED_EDGE('',*,*,#1090,.T.);
#5210=ORIENTED_EDGE('',*,*,#920,.F.);
#5220=ORIENTED_EDGE('',*,*,#660,.T.);
#5230=EDGE_LOOP('',(#5220,#5210,#5200,#5190));
#5240=FACE_OUTER_BOUND('',#5230,.T.);
#5250=ADVANCED_FACE('',(#5240),#5180,.T.);
#5260=CARTESIAN_POINT('',(-7.6,32.85,0.));
#5270=DIRECTION('',(0.,1.,0.));
#5280=DIRECTION('',(1.,0.,0.));
#5290=AXIS2_PLACEMENT_3D('',#5260,#5270,#5280);
#5300=CYLINDRICAL_SURFACE('',#5290,5.2);
#5310=ORIENTED_EDGE('',*,*,#1670,.F.);
#5320=ORIENTED_EDGE('',*,*,#1500,.T.);
#5330=ORIENTED_EDGE('',*,*,#1230,.T.);
#5340=ORIENTED_EDGE('',*,*,#1410,.F.);
#5350=EDGE_LOOP('',(#5340,#5330,#5320,#5310));
#5360=FACE_OUTER_BOUND('',#5350,.T.);
#5370=ADVANCED_FACE('',(#5360),#5300,.T.);
#5380=CARTESIAN_POINT('',(-7.6,0.85,0.));
#5390=DIRECTION('',(0.,-1.,0.));
#5400=DIRECTION('',(-1.,0.,0.));
#5410=AXIS2_PLACEMENT_3D('',#5380,#5390,#5400);
#5420=CONICAL_SURFACE('',#5410,1.65,0.785398163397448);
#5430=ORIENTED_EDGE('',*,*,#3260,.T.);
#5440=ORIENTED_EDGE('',*,*,#5010,.T.);
#5450=EDGE_CURVE('',#4560,#4390,#4630,.T.);
#5460=ORIENTED_EDGE('',*,*,#5450,.F.);
#5470=ORIENTED_EDGE('',*,*,#5080,.F.);
#5480=EDGE_LOOP('',(#5470,#5460,#5440,#5430));
#5490=FACE_OUTER_BOUND('',#5480,.T.);
#5500=ADVANCED_FACE('',(#5490),#5420,.F.);
#5510=CARTESIAN_POINT('',(-7.6,35.3,0.));
#5520=DIRECTION('',(0.,1.,0.));
#5530=DIRECTION('',(1.,0.,0.));
#5540=AXIS2_PLACEMENT_3D('',#5510,#5520,#5530);
#5550=CYLINDRICAL_SURFACE('',#5540,6.1);
#5560=EDGE_CURVE('',#1980,#2070,#2140,.T.);
#5570=ORIENTED_EDGE('',*,*,#5560,.F.);
#5580=ORIENTED_EDGE('',*,*,#2080,.T.);
#5590=ORIENTED_EDGE('',*,*,#1810,.T.);
#5600=ORIENTED_EDGE('',*,*,#1990,.F.);
#5610=EDGE_LOOP('',(#5600,#5590,#5580,#5570));
#5620=FACE_OUTER_BOUND('',#5610,.T.);
#5630=ADVANCED_FACE('',(#5620),#5550,.T.);
#5640=CARTESIAN_POINT('',(-7.6,6.07067344568456,0.));
#5650=DIRECTION('',(0.,1.,0.));
#5660=DIRECTION('',(1.,0.,0.));
#5670=AXIS2_PLACEMENT_3D('',#5640,#5650,#5660);
#5680=CONICAL_SURFACE('',#5670,4.20596399915243,0.0174532925199434);
#5690=ORIENTED_EDGE('',*,*,#2950,.T.);
#5700=ORIENTED_EDGE('',*,*,#3320,.T.);
#5710=ORIENTED_EDGE('',*,*,#3050,.F.);
#5720=ORIENTED_EDGE('',*,*,#2630,.T.);
#5730=EDGE_LOOP('',(#5720,#5710,#5700,#5690));
#5740=FACE_OUTER_BOUND('',#5730,.T.);
#5750=ADVANCED_FACE('',(#5740),#5680,.T.);
#5760=CARTESIAN_POINT('',(-7.6,8.5,0.));
#5770=DIRECTION('',(0.,-1.,0.));
#5780=DIRECTION('',(1.,0.,0.));
#5790=AXIS2_PLACEMENT_3D('',#5760,#5770,#5780);
#5800=CYLINDRICAL_SURFACE('',#5790,1.635);
#5810=ORIENTED_EDGE('',*,*,#4810,.F.);
#5820=ORIENTED_EDGE('',*,*,#3680,.T.);
#5830=EDGE_CURVE('',#3480,#3590,#3570,.T.);
#5840=ORIENTED_EDGE('',*,*,#5830,.T.);
#5850=ORIENTED_EDGE('',*,*,#3510,.F.);
#5860=EDGE_LOOP('',(#5850,#5840,#5820,#5810));
#5870=FACE_OUTER_BOUND('',#5860,.T.);
#5880=ADVANCED_FACE('',(#5870),#5800,.F.);
#5890=CARTESIAN_POINT('',(-7.6,10.,0.));
#5900=DIRECTION('',(0.,-1.,0.));
#5910=DIRECTION('',(1.,0.,0.));
#5920=AXIS2_PLACEMENT_3D('',#5890,#5900,#5910);
#5930=CONICAL_SURFACE('',#5920,1.635,1.02974425867666);
#5940=ORIENTED_EDGE('',*,*,#3910,.F.);
#5950=ORIENTED_EDGE('',*,*,#5830,.F.);
#5960=ORIENTED_EDGE('',*,*,#3970,.T.);
#5970=EDGE_LOOP('',(#5960,#5950,#5940));
#5980=FACE_OUTER_BOUND('',#5970,.T.);
#5990=ADVANCED_FACE('',(#5980),#5930,.F.);
#6000=CARTESIAN_POINT('',(-7.6,3.5,0.));
#6010=DIRECTION('',(0.,-1.,0.));
#6020=DIRECTION('',(1.,0.,0.));
#6030=AXIS2_PLACEMENT_3D('',#6000,#6010,#6020);
#6040=CYLINDRICAL_SURFACE('',#6030,1.65);
#6050=ORIENTED_EDGE('',*,*,#4400,.F.);
#6060=ORIENTED_EDGE('',*,*,#5450,.T.);
#6070=ORIENTED_EDGE('',*,*,#4570,.T.);
#6080=ORIENTED_EDGE('',*,*,#4870,.T.);
#6090=EDGE_LOOP('',(#6080,#6070,#6060,#6050));
#6100=FACE_OUTER_BOUND('',#6090,.T.);
#6110=ADVANCED_FACE('',(#6100),#6040,.F.);
#6120=COLOUR_RGB('',1.,0.,0.);
#6130=FILL_AREA_STYLE_COLOUR('',#6120);
#6140=FILL_AREA_STYLE('',(#6130));
#6150=SURFACE_STYLE_FILL_AREA(#6140);
#6160=SURFACE_SIDE_STYLE('',(#6150));
#6170=SURFACE_STYLE_USAGE(.BOTH.,#6160);
#6180=PRESENTATION_STYLE_ASSIGNMENT((#6170));
#6190=CARTESIAN_POINT('',(-7.6,18.,0.));
#6200=DIRECTION('',(0.,1.,0.));
#6210=DIRECTION('',(1.,0.,0.));
#6220=AXIS2_PLACEMENT_3D('',#6190,#6200,#6210);
#6230=TOROIDAL_SURFACE('',#6220,45.0621951219512,41.5621951219512);
#6240=ORIENTED_EDGE('',*,*,#840,.F.);
#6250=ORIENTED_EDGE('',*,*,#590,.T.);
#6260=ORIENTED_EDGE('',*,*,#300,.T.);
#6270=ORIENTED_EDGE('',*,*,#490,.F.);
#6280=EDGE_LOOP('',(#6270,#6260,#6250,#6240));
#6290=FACE_OUTER_BOUND('',#6280,.T.);
#6300=ADVANCED_FACE('',(#6290),#6230,.F.);
#6310=CARTESIAN_POINT('',(-7.6,43.2200073313744,0.));
#6320=DIRECTION('',(0.,1.,0.));
#6330=DIRECTION('',(1.,0.,0.));
#6340=AXIS2_PLACEMENT_3D('',#6310,#6320,#6330);
#6350=SPHERICAL_SURFACE('',#6340,9.15);
#6360=ORIENTED_EDGE('',*,*,#5560,.T.);
#6370=ORIENTED_EDGE('',*,*,#2340,.T.);
#6380=ORIENTED_EDGE('',*,*,#2320,.T.);
#6390=EDGE_LOOP('',(#6380,#6370,#6360));
#6400=FACE_OUTER_BOUND('',#6390,.T.);
#6410=ADVANCED_FACE('',(#6400),#6350,.T.);
#6420=CARTESIAN_POINT('',(-7.6,18.,0.));
#6430=DIRECTION('',(0.,-1.,0.));
#6440=DIRECTION('',(1.,0.,0.));
#6450=AXIS2_PLACEMENT_3D('',#6420,#6430,#6440);
#6460=TOROIDAL_SURFACE('',#6450,45.0621951219512,42.5621951219512);
#6470=EDGE_CURVE('',#2710,#2510,#2780,.T.);
#6480=ORIENTED_EDGE('',*,*,#6470,.F.);
#6490=ORIENTED_EDGE('',*,*,#4210,.F.);
#6500=ORIENTED_EDGE('',*,*,#150,.T.);
#6510=ORIENTED_EDGE('',*,*,#4130,.T.);
#6520=EDGE_LOOP('',(#6510,#6500,#6490,#6480));
#6530=FACE_OUTER_BOUND('',#6520,.T.);
#6540=ADVANCED_FACE('',(#6530),#6460,.T.);
#6550=CARTESIAN_POINT('',(-7.6,4.81313685473468,0.));
#6560=DIRECTION('',(0.,-1.,0.));
#6570=DIRECTION('',(-1.,0.,0.));
#6580=AXIS2_PLACEMENT_3D('',#6550,#6560,#6570);
#6590=TOROIDAL_SURFACE('',#6580,4.38404408191657,0.2);
#6600=ORIENTED_EDGE('',*,*,#6470,.T.);
#6610=ORIENTED_EDGE('',*,*,#2720,.F.);
#6620=ORIENTED_EDGE('',*,*,#2970,.F.);
#6630=ORIENTED_EDGE('',*,*,#2540,.T.);
#6640=EDGE_LOOP('',(#6630,#6620,#6610,#6600));
#6650=FACE_OUTER_BOUND('',#6640,.T.);
#6660=ADVANCED_FACE('',(#6650),#6590,.F.);
#6670=CLOSED_SHELL('',(#360,#700,#1030,#1290,#1610,#1870,#2190,#2390,
#2830,#3160,#3370,#3790,#4020,#4260,#4680,#4910,#5130,#5250,#5370,#5500,
#5630,#5750,#5880,#5990,#6110,#6300,#6410,#6540,#6660));
#6680=MANIFOLD_SOLID_BREP('',#6670);
#6690=CARTESIAN_POINT('',(0.,0.,0.));
#6700=DIRECTION('',(0.,0.,1.));
#6710=DIRECTION('',(1.,0.,0.));
#6720=AXIS2_PLACEMENT_3D('',#6690,#6700,#6710);
#6730=APPLICATION_CONTEXT(' ');
#6740=APPLICATION_PROTOCOL_DEFINITION(' ','automotive_design',1998,#6730
);
#6750=PRODUCT_CONTEXT('',#6730,'mechanical');
#6760=PRODUCT_DEFINITION_CONTEXT('part definition',#6730,'design');
#6770=PRODUCT('ZN-11420','ZN-11420','',(#6750));
#6780=PRODUCT_RELATED_PRODUCT_CATEGORY('part',' ',(#6770));
#6790=PRODUCT_DEFINITION_FORMATION_WITH_SPECIFIED_SOURCE('','',#6770,
.BOUGHT.);
#6800=PRODUCT_DEFINITION('',' ',#6790,#6760);
#6810=PRODUCT_DEFINITION_SHAPE('','',#6800);
#6820=DIMENSIONAL_EXPONENTS(1.,0.,0.,0.,0.,0.,0.);
#6830=DIMENSIONAL_EXPONENTS(0.,0.,0.,0.,0.,0.,0.);
#6840=DIMENSIONAL_EXPONENTS(0.,0.,0.,0.,0.,0.,0.);
#6850=(LENGTH_UNIT() NAMED_UNIT(*) SI_UNIT(.MILLI.,.METRE.));
#6860=(NAMED_UNIT(*) PLANE_ANGLE_UNIT() SI_UNIT($,.RADIAN.));
#6870=(NAMED_UNIT(*) SI_UNIT($,.STERADIAN.) SOLID_ANGLE_UNIT());
#6880=(GEOMETRIC_REPRESENTATION_CONTEXT(3) 
GLOBAL_UNCERTAINTY_ASSIGNED_CONTEXT((#6890)) 
GLOBAL_UNIT_ASSIGNED_CONTEXT((#6850,#6860,#6870)) REPRESENTATION_CONTEXT
('',''));
#6890=UNCERTAINTY_MEASURE_WITH_UNIT(LENGTH_MEASURE(1.E-6),#6850,
'distance_accuracy_value','maximum gap value');
#6900=ADVANCED_BREP_SHAPE_REPRESENTATION('',(#6720,#6680),#6880);
#6910=SHAPE_DEFINITION_REPRESENTATION(#6810,#6900);
#6920=COLOUR_RGB('',0.600000023841858,0.600000023841858,
0.600000023841858);
#6930=FILL_AREA_STYLE_COLOUR('',#6920);
#6940=FILL_AREA_STYLE('',(#6930));
#6950=SURFACE_STYLE_FILL_AREA(#6940);
#6960=SURFACE_SIDE_STYLE('',(#6950));
#6970=SURFACE_STYLE_USAGE(.BOTH.,#6960);
#6980=PRESENTATION_STYLE_ASSIGNMENT((#6970));
#6990=STYLED_ITEM('',(#6980),#6680);
#7000=OVER_RIDING_STYLED_ITEM('',(#4750),#4680,#6990);
#7010=OVER_RIDING_STYLED_ITEM('',(#6180),#6110,#6990);
#7020=DRAUGHTING_MODEL('',(#6990,#7000,#7010),#6880);
ENDSEC;
END-ISO-10303-21;
