ISO-10303-21;
HEADER;
FILE_DESCRIPTION(('Creo Elements/Direct Modeling STEP Export'),'2;1');
FILE_NAME('646-18.stp','2017-11-13T 9:46:23',(''),(''),
'Creo Elements/Direct Modeling STEP processor for AP214 (Solid Model)',
'Creo Elements/Direct Modeling 20.0  12-Nov-2016 (C) Parametric Technolo
gy GmbH','');
FILE_SCHEMA(('AUTOMOTIVE_DESIGN { 1 0 10303 214 1 1 1 1 }'));
ENDSEC;
DATA;
#10=CARTESIAN_POINT('',(3.75,0.,0.));
#20=DIRECTION('',(-0.,1.,0.));
#30=DIRECTION('',(1.,0.,0.));
#40=AXIS2_PLACEMENT_3D('',#10,#20,#30);
#50=PLANE('',#40);
#60=CARTESIAN_POINT('',(0.,0.,0.));
#70=DIRECTION('',(0.,-1.,0.));
#80=DIRECTION('',(1.,0.,0.));
#90=AXIS2_PLACEMENT_3D('',#60,#70,#80);
#100=CIRCLE('',#90,1.65);
#110=CARTESIAN_POINT('',(1.65,0.,0.));
#120=VERTEX_POINT('',#110);
#130=CARTESIAN_POINT('',(-1.65,0.,2.02066721859313E-16));
#140=VERTEX_POINT('',#130);
#150=EDGE_CURVE('',#120,#140,#100,.T.);
#160=ORIENTED_EDGE('',*,*,#150,.F.);
#170=EDGE_CURVE('',#140,#120,#100,.T.);
#180=ORIENTED_EDGE('',*,*,#170,.F.);
#190=EDGE_LOOP('',(#180,#160));
#200=FACE_BOUND('',#190,.T.);
#210=CARTESIAN_POINT('',(0.,0.,0.));
#220=DIRECTION('',(0.,1.,0.));
#230=DIRECTION('',(1.,0.,0.));
#240=AXIS2_PLACEMENT_3D('',#210,#220,#230);
#250=CIRCLE('',#240,7.5);
#260=CARTESIAN_POINT('',(7.5,0.,0.));
#270=VERTEX_POINT('',#260);
#280=CARTESIAN_POINT('',(-7.5,0.,-9.18485099360515E-16));
#290=VERTEX_POINT('',#280);
#300=EDGE_CURVE('',#270,#290,#250,.T.);
#310=ORIENTED_EDGE('',*,*,#300,.F.);
#320=EDGE_CURVE('',#290,#270,#250,.T.);
#330=ORIENTED_EDGE('',*,*,#320,.F.);
#340=EDGE_LOOP('',(#330,#310));
#350=FACE_OUTER_BOUND('',#340,.T.);
#360=ADVANCED_FACE('',(#200,#350),#50,.F.);
#370=CARTESIAN_POINT('',(0.,1.,0.));
#380=DIRECTION('',(0.,1.,0.));
#390=DIRECTION('',(1.,0.,0.));
#400=AXIS2_PLACEMENT_3D('',#370,#380,#390);
#410=CYLINDRICAL_SURFACE('',#400,7.5);
#420=CARTESIAN_POINT('',(7.5,1.,0.));
#430=DIRECTION('',(0.,1.,0.));
#440=VECTOR('',#430,1.);
#450=LINE('',#420,#440);
#460=CARTESIAN_POINT('',(7.5,2.,0.));
#470=VERTEX_POINT('',#460);
#480=EDGE_CURVE('',#270,#470,#450,.T.);
#490=ORIENTED_EDGE('',*,*,#480,.T.);
#500=ORIENTED_EDGE('',*,*,#320,.T.);
#510=CARTESIAN_POINT('',(-7.5,1.,-9.18485099360515E-16));
#520=DIRECTION('',(0.,1.,0.));
#530=VECTOR('',#520,1.);
#540=LINE('',#510,#530);
#550=CARTESIAN_POINT('',(-7.5,2.,-9.18485099360515E-16));
#560=VERTEX_POINT('',#550);
#570=EDGE_CURVE('',#290,#560,#540,.T.);
#580=ORIENTED_EDGE('',*,*,#570,.F.);
#590=CARTESIAN_POINT('',(0.,2.,0.));
#600=DIRECTION('',(0.,1.,0.));
#610=DIRECTION('',(1.,0.,0.));
#620=AXIS2_PLACEMENT_3D('',#590,#600,#610);
#630=CIRCLE('',#620,7.5);
#640=EDGE_CURVE('',#560,#470,#630,.T.);
#650=ORIENTED_EDGE('',*,*,#640,.F.);
#660=EDGE_LOOP('',(#650,#580,#500,#490));
#670=FACE_OUTER_BOUND('',#660,.T.);
#680=ADVANCED_FACE('',(#670),#410,.T.);
#690=CARTESIAN_POINT('',(5.25,2.,0.));
#700=DIRECTION('',(-0.,1.,0.));
#710=DIRECTION('',(1.,0.,0.));
#720=AXIS2_PLACEMENT_3D('',#690,#700,#710);
#730=PLANE('',#720);
#740=CARTESIAN_POINT('',(0.,2.,0.));
#750=DIRECTION('',(0.,1.,0.));
#760=DIRECTION('',(1.,0.,0.));
#770=AXIS2_PLACEMENT_3D('',#740,#750,#760);
#780=CIRCLE('',#770,3.25);
#790=CARTESIAN_POINT('',(3.25,2.,0.));
#800=VERTEX_POINT('',#790);
#810=CARTESIAN_POINT('',(-3.25,2.,-3.9801020972289E-16));
#820=VERTEX_POINT('',#810);
#830=EDGE_CURVE('',#800,#820,#780,.T.);
#840=ORIENTED_EDGE('',*,*,#830,.F.);
#850=EDGE_CURVE('',#820,#800,#780,.T.);
#860=ORIENTED_EDGE('',*,*,#850,.F.);
#870=EDGE_LOOP('',(#860,#840));
#880=FACE_BOUND('',#870,.T.);
#890=EDGE_CURVE('',#470,#560,#630,.T.);
#900=ORIENTED_EDGE('',*,*,#890,.T.);
#910=ORIENTED_EDGE('',*,*,#640,.T.);
#920=EDGE_LOOP('',(#910,#900));
#930=FACE_OUTER_BOUND('',#920,.T.);
#940=ADVANCED_FACE('',(#880,#930),#730,.T.);
#950=CARTESIAN_POINT('',(0.,5.755,0.));
#960=DIRECTION('',(0.,1.,0.));
#970=DIRECTION('',(1.,0.,0.));
#980=AXIS2_PLACEMENT_3D('',#950,#960,#970);
#990=CYLINDRICAL_SURFACE('',#980,3.25);
#1000=CARTESIAN_POINT('',(3.25,5.755,0.));
#1010=DIRECTION('',(0.,1.,0.));
#1020=VECTOR('',#1010,1.);
#1030=LINE('',#1000,#1020);
#1040=CARTESIAN_POINT('',(3.25,9.60263698251989,0.));
#1050=VERTEX_POINT('',#1040);
#1060=EDGE_CURVE('',#800,#1050,#1030,.T.);
#1070=ORIENTED_EDGE('',*,*,#1060,.T.);
#1080=ORIENTED_EDGE('',*,*,#850,.T.);
#1090=CARTESIAN_POINT('',(-3.25,5.755,-3.9801020972289E-16));
#1100=DIRECTION('',(0.,1.,0.));
#1110=VECTOR('',#1100,1.);
#1120=LINE('',#1090,#1110);
#1130=CARTESIAN_POINT('',(-3.25,9.60263698251989,0.));
#1140=VERTEX_POINT('',#1130);
#1150=EDGE_CURVE('',#820,#1140,#1120,.T.);
#1160=ORIENTED_EDGE('',*,*,#1150,.F.);
#1170=CARTESIAN_POINT('',(0.,9.60263698251989,0.));
#1180=DIRECTION('',(0.,1.,0.));
#1190=DIRECTION('',(1.,0.,0.));
#1200=AXIS2_PLACEMENT_3D('',#1170,#1180,#1190);
#1210=CIRCLE('',#1200,3.25);
#1220=EDGE_CURVE('',#1140,#1050,#1210,.T.);
#1230=ORIENTED_EDGE('',*,*,#1220,.F.);
#1240=EDGE_LOOP('',(#1230,#1160,#1080,#1070));
#1250=FACE_OUTER_BOUND('',#1240,.T.);
#1260=ADVANCED_FACE('',(#1250),#990,.T.);
#1270=CARTESIAN_POINT('',(0.,17.9972359369675,0.));
#1280=DIRECTION('',(0.,1.,0.));
#1290=DIRECTION('',(1.,0.,0.));
#1300=AXIS2_PLACEMENT_3D('',#1270,#1280,#1290);
#1310=DEGENERATE_TOROIDAL_SURFACE('',#1300,0.00276448747939995,
9.0027644874794,.F.);
#1320=CARTESIAN_POINT('',(0.00276448747939995,17.9972359369675,0.));
#1330=DIRECTION('',(0.,0.,1.));
#1340=DIRECTION('',(-1.,0.,0.));
#1350=AXIS2_PLACEMENT_3D('',#1320,#1330,#1340);
#1360=CIRCLE('',#1350,9.0027644874794);
#1370=CARTESIAN_POINT('',(1.69222275081538E-15,27.,0.));
#1380=VERTEX_POINT('',#1370);
#1390=EDGE_CURVE('',#1380,#1140,#1360,.T.);
#1400=ORIENTED_EDGE('',*,*,#1390,.T.);
#1410=CARTESIAN_POINT('',(-0.00276448747939995,17.9972359369675,0.));
#1420=DIRECTION('',(0.,0.,-1.));
#1430=DIRECTION('',(1.,0.,0.));
#1440=AXIS2_PLACEMENT_3D('',#1410,#1420,#1430);
#1450=CIRCLE('',#1440,9.0027644874794);
#1460=EDGE_CURVE('',#1380,#1050,#1450,.T.);
#1470=ORIENTED_EDGE('',*,*,#1460,.F.);
#1480=ORIENTED_EDGE('',*,*,#1220,.T.);
#1490=EDGE_LOOP('',(#1480,#1470,#1400));
#1500=FACE_OUTER_BOUND('',#1490,.T.);
#1510=ADVANCED_FACE('',(#1500),#1310,.F.);
#1520=CARTESIAN_POINT('',(0.,10.,0.));
#1530=DIRECTION('',(0.,-1.,0.));
#1540=DIRECTION('',(1.,0.,0.));
#1550=AXIS2_PLACEMENT_3D('',#1520,#1530,#1540);
#1560=CONICAL_SURFACE('',#1550,1.635,1.02974425867666);
#1570=CARTESIAN_POINT('',(1.635,10.,0.));
#1580=DIRECTION('',(0.857167300702113,-0.515038074910054,0.));
#1590=VECTOR('',#1580,1.90744560444706);
#1600=LINE('',#1570,#1590);
#1610=CARTESIAN_POINT('',(-2.22044604925031E-16,10.9824071121101,
2.46519032881566E-32));
#1620=VERTEX_POINT('',#1610);
#1630=CARTESIAN_POINT('',(1.635,10.,0.));
#1640=VERTEX_POINT('',#1630);
#1650=EDGE_CURVE('',#1620,#1640,#1600,.T.);
#1660=ORIENTED_EDGE('',*,*,#1650,.T.);
#1670=CARTESIAN_POINT('',(-1.635,10.,2.00229751660592E-16));
#1680=DIRECTION('',(-0.857167300702113,-0.515038074910054,
1.04972719113862E-16));
#1690=VECTOR('',#1680,1.90744560444706);
#1700=LINE('',#1670,#1690);
#1710=CARTESIAN_POINT('',(-1.635,10.,2.00229751660592E-16));
#1720=VERTEX_POINT('',#1710);
#1730=EDGE_CURVE('',#1620,#1720,#1700,.T.);
#1740=ORIENTED_EDGE('',*,*,#1730,.F.);
#1750=CARTESIAN_POINT('',(0.,10.,0.));
#1760=DIRECTION('',(0.,1.,0.));
#1770=DIRECTION('',(1.,0.,0.));
#1780=AXIS2_PLACEMENT_3D('',#1750,#1760,#1770);
#1790=CIRCLE('',#1780,1.635);
#1800=EDGE_CURVE('',#1720,#1640,#1790,.T.);
#1810=ORIENTED_EDGE('',*,*,#1800,.F.);
#1820=EDGE_LOOP('',(#1810,#1740,#1660));
#1830=FACE_OUTER_BOUND('',#1820,.T.);
#1840=ADVANCED_FACE('',(#1830),#1560,.F.);
#1850=CARTESIAN_POINT('',(0.,3.5,0.));
#1860=DIRECTION('',(0.,-1.,0.));
#1870=DIRECTION('',(1.,0.,0.));
#1880=AXIS2_PLACEMENT_3D('',#1850,#1860,#1870);
#1890=CYLINDRICAL_SURFACE('',#1880,1.65);
#1900=CARTESIAN_POINT('',(-1.65,3.5,2.02066721859313E-16));
#1910=DIRECTION('',(0.,-1.,0.));
#1920=VECTOR('',#1910,1.);
#1930=LINE('',#1900,#1920);
#1940=CARTESIAN_POINT('',(-1.65,7.,2.02066721859313E-16));
#1950=VERTEX_POINT('',#1940);
#1960=EDGE_CURVE('',#1950,#140,#1930,.T.);
#1970=ORIENTED_EDGE('',*,*,#1960,.T.);
#1980=CARTESIAN_POINT('',(0.,7.,0.));
#1990=DIRECTION('',(0.,1.,0.));
#2000=DIRECTION('',(1.,0.,0.));
#2010=AXIS2_PLACEMENT_3D('',#1980,#1990,#2000);
#2020=CIRCLE('',#2010,1.65);
#2030=CARTESIAN_POINT('',(1.65,7.,0.));
#2040=VERTEX_POINT('',#2030);
#2050=EDGE_CURVE('',#2040,#1950,#2020,.T.);
#2060=ORIENTED_EDGE('',*,*,#2050,.T.);
#2070=CARTESIAN_POINT('',(1.65,3.5,0.));
#2080=DIRECTION('',(0.,-1.,0.));
#2090=VECTOR('',#2080,1.);
#2100=LINE('',#2070,#2090);
#2110=EDGE_CURVE('',#2040,#120,#2100,.T.);
#2120=ORIENTED_EDGE('',*,*,#2110,.F.);
#2130=ORIENTED_EDGE('',*,*,#170,.T.);
#2140=EDGE_LOOP('',(#2130,#2120,#2060,#1970));
#2150=FACE_OUTER_BOUND('',#2140,.T.);
#2160=ADVANCED_FACE('M4-0.7_8118407',(#2150),#1890,.F.);
#2170=COLOUR_RGB('',1.,0.,0.);
#2180=FILL_AREA_STYLE_COLOUR('',#2170);
#2190=FILL_AREA_STYLE('',(#2180));
#2200=SURFACE_STYLE_FILL_AREA(#2190);
#2210=SURFACE_SIDE_STYLE('',(#2200));
#2220=SURFACE_STYLE_USAGE(.BOTH.,#2210);
#2230=PRESENTATION_STYLE_ASSIGNMENT((#2220));
#2240=CARTESIAN_POINT('',(1.6425,7.,0.));
#2250=DIRECTION('',(0.,-1.,0.));
#2260=DIRECTION('',(1.,0.,0.));
#2270=AXIS2_PLACEMENT_3D('',#2240,#2250,#2260);
#2280=PLANE('',#2270);
#2290=ORIENTED_EDGE('',*,*,#2050,.F.);
#2300=EDGE_CURVE('',#1950,#2040,#2020,.T.);
#2310=ORIENTED_EDGE('',*,*,#2300,.F.);
#2320=EDGE_LOOP('',(#2310,#2290));
#2330=FACE_OUTER_BOUND('',#2320,.T.);
#2340=CARTESIAN_POINT('',(0.,7.,0.));
#2350=DIRECTION('',(0.,1.,0.));
#2360=DIRECTION('',(1.,0.,0.));
#2370=AXIS2_PLACEMENT_3D('',#2340,#2350,#2360);
#2380=CIRCLE('',#2370,1.635);
#2390=CARTESIAN_POINT('',(1.635,7.,0.));
#2400=VERTEX_POINT('',#2390);
#2410=CARTESIAN_POINT('',(-1.635,7.,2.00229751660592E-16));
#2420=VERTEX_POINT('',#2410);
#2430=EDGE_CURVE('',#2400,#2420,#2380,.T.);
#2440=ORIENTED_EDGE('',*,*,#2430,.T.);
#2450=EDGE_CURVE('',#2420,#2400,#2380,.T.);
#2460=ORIENTED_EDGE('',*,*,#2450,.T.);
#2470=EDGE_LOOP('',(#2460,#2440));
#2480=FACE_BOUND('',#2470,.T.);
#2490=ADVANCED_FACE('',(#2330,#2480),#2280,.T.);
#2500=CARTESIAN_POINT('',(0.,8.5,0.));
#2510=DIRECTION('',(0.,-1.,0.));
#2520=DIRECTION('',(1.,0.,0.));
#2530=AXIS2_PLACEMENT_3D('',#2500,#2510,#2520);
#2540=CYLINDRICAL_SURFACE('',#2530,1.635);
#2550=CARTESIAN_POINT('',(1.635,8.5,0.));
#2560=DIRECTION('',(0.,-1.,0.));
#2570=VECTOR('',#2560,1.);
#2580=LINE('',#2550,#2570);
#2590=EDGE_CURVE('',#1640,#2400,#2580,.T.);
#2600=ORIENTED_EDGE('',*,*,#2590,.T.);
#2610=ORIENTED_EDGE('',*,*,#1800,.T.);
#2620=CARTESIAN_POINT('',(-1.635,8.5,2.00229751660592E-16));
#2630=DIRECTION('',(0.,-1.,0.));
#2640=VECTOR('',#2630,1.);
#2650=LINE('',#2620,#2640);
#2660=EDGE_CURVE('',#1720,#2420,#2650,.T.);
#2670=ORIENTED_EDGE('',*,*,#2660,.F.);
#2680=ORIENTED_EDGE('',*,*,#2450,.F.);
#2690=EDGE_LOOP('',(#2680,#2670,#2610,#2600));
#2700=FACE_OUTER_BOUND('',#2690,.T.);
#2710=ADVANCED_FACE('',(#2700),#2540,.F.);
#2720=CARTESIAN_POINT('',(0.,10.,0.));
#2730=DIRECTION('',(0.,-1.,0.));
#2740=DIRECTION('',(1.,0.,0.));
#2750=AXIS2_PLACEMENT_3D('',#2720,#2730,#2740);
#2760=CONICAL_SURFACE('',#2750,1.635,1.02974425867666);
#2770=ORIENTED_EDGE('',*,*,#1650,.F.);
#2780=EDGE_CURVE('',#1640,#1720,#1790,.T.);
#2790=ORIENTED_EDGE('',*,*,#2780,.F.);
#2800=ORIENTED_EDGE('',*,*,#1730,.T.);
#2810=EDGE_LOOP('',(#2800,#2790,#2770));
#2820=FACE_OUTER_BOUND('',#2810,.T.);
#2830=ADVANCED_FACE('',(#2820),#2760,.F.);
#2840=CARTESIAN_POINT('',(0.,8.5,0.));
#2850=DIRECTION('',(0.,-1.,0.));
#2860=DIRECTION('',(1.,0.,0.));
#2870=AXIS2_PLACEMENT_3D('',#2840,#2850,#2860);
#2880=CYLINDRICAL_SURFACE('',#2870,1.635);
#2890=ORIENTED_EDGE('',*,*,#2430,.F.);
#2900=ORIENTED_EDGE('',*,*,#2660,.T.);
#2910=ORIENTED_EDGE('',*,*,#2780,.T.);
#2920=ORIENTED_EDGE('',*,*,#2590,.F.);
#2930=EDGE_LOOP('',(#2920,#2910,#2900,#2890));
#2940=FACE_OUTER_BOUND('',#2930,.T.);
#2950=ADVANCED_FACE('',(#2940),#2880,.F.);
#2960=CARTESIAN_POINT('',(0.,5.755,0.));
#2970=DIRECTION('',(0.,1.,0.));
#2980=DIRECTION('',(1.,0.,0.));
#2990=AXIS2_PLACEMENT_3D('',#2960,#2970,#2980);
#3000=CYLINDRICAL_SURFACE('',#2990,3.25);
#3010=EDGE_CURVE('',#1050,#1140,#1210,.T.);
#3020=ORIENTED_EDGE('',*,*,#3010,.F.);
#3030=ORIENTED_EDGE('',*,*,#1150,.T.);
#3040=ORIENTED_EDGE('',*,*,#830,.T.);
#3050=ORIENTED_EDGE('',*,*,#1060,.F.);
#3060=EDGE_LOOP('',(#3050,#3040,#3030,#3020));
#3070=FACE_OUTER_BOUND('',#3060,.T.);
#3080=ADVANCED_FACE('',(#3070),#3000,.T.);
#3090=CARTESIAN_POINT('',(0.,1.,0.));
#3100=DIRECTION('',(0.,1.,0.));
#3110=DIRECTION('',(1.,0.,0.));
#3120=AXIS2_PLACEMENT_3D('',#3090,#3100,#3110);
#3130=CYLINDRICAL_SURFACE('',#3120,7.5);
#3140=ORIENTED_EDGE('',*,*,#890,.F.);
#3150=ORIENTED_EDGE('',*,*,#570,.T.);
#3160=ORIENTED_EDGE('',*,*,#300,.T.);
#3170=ORIENTED_EDGE('',*,*,#480,.F.);
#3180=EDGE_LOOP('',(#3170,#3160,#3150,#3140));
#3190=FACE_OUTER_BOUND('',#3180,.T.);
#3200=ADVANCED_FACE('',(#3190),#3130,.T.);
#3210=CARTESIAN_POINT('',(0.,3.5,0.));
#3220=DIRECTION('',(0.,-1.,0.));
#3230=DIRECTION('',(1.,0.,0.));
#3240=AXIS2_PLACEMENT_3D('',#3210,#3220,#3230);
#3250=CYLINDRICAL_SURFACE('',#3240,1.65);
#3260=ORIENTED_EDGE('',*,*,#1960,.F.);
#3270=ORIENTED_EDGE('',*,*,#150,.T.);
#3280=ORIENTED_EDGE('',*,*,#2110,.T.);
#3290=ORIENTED_EDGE('',*,*,#2300,.T.);
#3300=EDGE_LOOP('',(#3290,#3280,#3270,#3260));
#3310=FACE_OUTER_BOUND('',#3300,.T.);
#3320=ADVANCED_FACE('',(#3310),#3250,.F.);
#3330=COLOUR_RGB('',1.,0.,0.);
#3340=FILL_AREA_STYLE_COLOUR('',#3330);
#3350=FILL_AREA_STYLE('',(#3340));
#3360=SURFACE_STYLE_FILL_AREA(#3350);
#3370=SURFACE_SIDE_STYLE('',(#3360));
#3380=SURFACE_STYLE_USAGE(.BOTH.,#3370);
#3390=PRESENTATION_STYLE_ASSIGNMENT((#3380));
#3400=CARTESIAN_POINT('',(0.,17.9972359369675,0.));
#3410=DIRECTION('',(0.,1.,0.));
#3420=DIRECTION('',(1.,0.,0.));
#3430=AXIS2_PLACEMENT_3D('',#3400,#3410,#3420);
#3440=DEGENERATE_TOROIDAL_SURFACE('',#3430,0.00276448747939995,
9.0027644874794,.F.);
#3450=ORIENTED_EDGE('',*,*,#3010,.T.);
#3460=ORIENTED_EDGE('',*,*,#1460,.T.);
#3470=ORIENTED_EDGE('',*,*,#1390,.F.);
#3480=EDGE_LOOP('',(#3470,#3460,#3450));
#3490=FACE_OUTER_BOUND('',#3480,.T.);
#3500=ADVANCED_FACE('',(#3490),#3440,.F.);
#3510=CLOSED_SHELL('',(#360,#680,#940,#1260,#1510,#1840,#2160,#2490,
#2710,#2830,#2950,#3080,#3200,#3320,#3500));
#3520=MANIFOLD_SOLID_BREP('',#3510);
#3530=CARTESIAN_POINT('',(0.,0.,0.));
#3540=DIRECTION('',(0.,0.,1.));
#3550=DIRECTION('',(1.,0.,0.));
#3560=AXIS2_PLACEMENT_3D('',#3530,#3540,#3550);
#3570=APPLICATION_CONTEXT(' ');
#3580=APPLICATION_PROTOCOL_DEFINITION(' ','automotive_design',1998,#3570
);
#3590=PRODUCT_CONTEXT('',#3570,'mechanical');
#3600=PRODUCT_DEFINITION_CONTEXT('part definition',#3570,'design');
#3610=PRODUCT('646-18','646-18','',(#3590));
#3620=PRODUCT_RELATED_PRODUCT_CATEGORY('part',' ',(#3610));
#3630=PRODUCT_DEFINITION_FORMATION_WITH_SPECIFIED_SOURCE('','',#3610,
.BOUGHT.);
#3640=PRODUCT_DEFINITION('',' ',#3630,#3600);
#3650=PRODUCT_DEFINITION_SHAPE('','',#3640);
#3660=DIMENSIONAL_EXPONENTS(1.,0.,0.,0.,0.,0.,0.);
#3670=DIMENSIONAL_EXPONENTS(0.,0.,0.,0.,0.,0.,0.);
#3680=DIMENSIONAL_EXPONENTS(0.,0.,0.,0.,0.,0.,0.);
#3690=(LENGTH_UNIT() NAMED_UNIT(*) SI_UNIT(.MILLI.,.METRE.));
#3700=(NAMED_UNIT(*) PLANE_ANGLE_UNIT() SI_UNIT($,.RADIAN.));
#3710=(NAMED_UNIT(*) SI_UNIT($,.STERADIAN.) SOLID_ANGLE_UNIT());
#3720=(GEOMETRIC_REPRESENTATION_CONTEXT(3) 
GLOBAL_UNCERTAINTY_ASSIGNED_CONTEXT((#3730)) 
GLOBAL_UNIT_ASSIGNED_CONTEXT((#3690,#3700,#3710)) REPRESENTATION_CONTEXT
('',''));
#3730=UNCERTAINTY_MEASURE_WITH_UNIT(LENGTH_MEASURE(1.E-6),#3690,
'distance_accuracy_value','maximum gap value');
#3740=ADVANCED_BREP_SHAPE_REPRESENTATION('',(#3560,#3520),#3720);
#3750=SHAPE_DEFINITION_REPRESENTATION(#3650,#3740);
#3760=COLOUR_RGB('',0.600000023841858,0.600000023841858,
0.600000023841858);
#3770=FILL_AREA_STYLE_COLOUR('',#3760);
#3780=FILL_AREA_STYLE('',(#3770));
#3790=SURFACE_STYLE_FILL_AREA(#3780);
#3800=SURFACE_SIDE_STYLE('',(#3790));
#3810=SURFACE_STYLE_USAGE(.BOTH.,#3800);
#3820=PRESENTATION_STYLE_ASSIGNMENT((#3810));
#3830=STYLED_ITEM('',(#3820),#3520);
#3840=OVER_RIDING_STYLED_ITEM('',(#2230),#2160,#3830);
#3850=OVER_RIDING_STYLED_ITEM('',(#3390),#3320,#3830);
#3860=DRAUGHTING_MODEL('',(#3830,#3840,#3850),#3720);
ENDSEC;
END-ISO-10303-21;
