ISO-10303-21;
HEADER;
FILE_DESCRIPTION(('Creo Elements/Direct Modeling STEP Export'),'2;1');
FILE_NAME('2280-14.stp','2022-05-04T10:28:00',(''),(''),
'Creo Elements/Direct Modeling STEP processor for AP214 (Solid Model)',
'Creo Elements/Direct Modeling 20.0  12-Nov-2016 (C) Parametric Technolo
gy GmbH','');
FILE_SCHEMA(('AUTOMOTIVE_DESIGN { 1 0 10303 214 1 1 1 1 }'));
ENDSEC;
DATA;
#10=CARTESIAN_POINT('',(2.5,4.71844785465692E-16,0.));
#20=DIRECTION('',(-0.,-1.,-0.));
#30=DIRECTION('',(-1.,0.,0.));
#40=AXIS2_PLACEMENT_3D('',#10,#20,#30);
#50=PLANE('',#40);
#60=CARTESIAN_POINT('',(0.,4.71844785465692E-16,0.));
#70=DIRECTION('',(0.,1.,0.));
#80=DIRECTION('',(1.,0.,0.));
#90=AXIS2_PLACEMENT_3D('',#60,#70,#80);
#100=CIRCLE('',#90,2.5);
#110=CARTESIAN_POINT('',(2.5,4.71844785465692E-16,-3.06161699786838E-16)
);
#120=VERTEX_POINT('',#110);
#130=CARTESIAN_POINT('',(-2.5,4.71844785465692E-16,0.));
#140=VERTEX_POINT('',#130);
#150=EDGE_CURVE('',#120,#140,#100,.T.);
#160=ORIENTED_EDGE('',*,*,#150,.T.);
#170=EDGE_CURVE('',#140,#120,#100,.T.);
#180=ORIENTED_EDGE('',*,*,#170,.T.);
#190=EDGE_LOOP('',(#180,#160));
#200=FACE_BOUND('',#190,.T.);
#210=CARTESIAN_POINT('',(0.,0.,0.));
#220=DIRECTION('',(0.,-1.,0.));
#230=DIRECTION('',(-1.,0.,0.));
#240=AXIS2_PLACEMENT_3D('',#210,#220,#230);
#250=CIRCLE('',#240,7.);
#260=CARTESIAN_POINT('',(-7.,0.,0.));
#270=VERTEX_POINT('',#260);
#280=CARTESIAN_POINT('',(7.,0.,-8.57252759403147E-16));
#290=VERTEX_POINT('',#280);
#300=EDGE_CURVE('',#270,#290,#250,.T.);
#310=ORIENTED_EDGE('',*,*,#300,.T.);
#320=EDGE_CURVE('',#290,#270,#250,.T.);
#330=ORIENTED_EDGE('',*,*,#320,.T.);
#340=EDGE_LOOP('',(#330,#310));
#350=FACE_OUTER_BOUND('',#340,.T.);
#360=ADVANCED_FACE('',(#200,#350),#50,.T.);
#370=CARTESIAN_POINT('',(0.,8.25,0.));
#380=DIRECTION('',(0.,-1.,0.));
#390=DIRECTION('',(-1.,0.,0.));
#400=AXIS2_PLACEMENT_3D('',#370,#380,#390);
#410=CYLINDRICAL_SURFACE('',#400,7.);
#420=CARTESIAN_POINT('',(-7.,8.25,0.));
#430=DIRECTION('',(0.,-1.,0.));
#440=VECTOR('',#430,1.);
#450=LINE('',#420,#440);
#460=CARTESIAN_POINT('',(-7.,17.5,0.));
#470=VERTEX_POINT('',#460);
#480=EDGE_CURVE('',#470,#270,#450,.T.);
#490=ORIENTED_EDGE('',*,*,#480,.T.);
#500=CARTESIAN_POINT('',(8.88178419700125E-16,17.5,8.88178419700125E-16)
);
#510=DIRECTION('',(0.,-1.,0.));
#520=DIRECTION('',(1.,0.,0.));
#530=AXIS2_PLACEMENT_3D('',#500,#510,#520);
#540=CIRCLE('',#530,7.);
#550=CARTESIAN_POINT('',(7.,17.5,-8.57252759403147E-16));
#560=VERTEX_POINT('',#550);
#570=EDGE_CURVE('',#560,#470,#540,.T.);
#580=ORIENTED_EDGE('',*,*,#570,.T.);
#590=CARTESIAN_POINT('',(7.,8.25,-8.57252759403147E-16));
#600=DIRECTION('',(0.,-1.,0.));
#610=VECTOR('',#600,1.);
#620=LINE('',#590,#610);
#630=EDGE_CURVE('',#560,#290,#620,.T.);
#640=ORIENTED_EDGE('',*,*,#630,.F.);
#650=ORIENTED_EDGE('',*,*,#320,.F.);
#660=EDGE_LOOP('',(#650,#640,#580,#490));
#670=FACE_OUTER_BOUND('',#660,.T.);
#680=ADVANCED_FACE('',(#670),#410,.T.);
#690=CARTESIAN_POINT('',(8.88178419700125E-16,19.5,8.88178419700125E-16)
);
#700=DIRECTION('',(0.,-1.,0.));
#710=DIRECTION('',(1.,0.,0.));
#720=AXIS2_PLACEMENT_3D('',#690,#700,#710);
#730=CONICAL_SURFACE('',#720,5.,0.785398163397449);
#740=CARTESIAN_POINT('',(-5.,19.5,1.5005018192738E-15));
#750=DIRECTION('',(-0.707106781186548,-0.707106781186547,
8.65956056235494E-17));
#760=VECTOR('',#750,7.07106781186547);
#770=LINE('',#740,#760);
#780=CARTESIAN_POINT('',(-6.25,18.25,1.65358266916722E-15));
#790=VERTEX_POINT('',#780);
#800=EDGE_CURVE('',#790,#470,#770,.T.);
#810=ORIENTED_EDGE('',*,*,#800,.F.);
#820=EDGE_CURVE('',#470,#560,#540,.T.);
#830=ORIENTED_EDGE('',*,*,#820,.F.);
#840=CARTESIAN_POINT('',(5.,19.5,8.88178419700125E-16));
#850=DIRECTION('',(0.707106781186548,-0.707106781186547,0.));
#860=VECTOR('',#850,7.07106781186547);
#870=LINE('',#840,#860);
#880=CARTESIAN_POINT('',(6.25,18.25,8.88178419700125E-16));
#890=VERTEX_POINT('',#880);
#900=EDGE_CURVE('',#890,#560,#870,.T.);
#910=ORIENTED_EDGE('',*,*,#900,.T.);
#920=CARTESIAN_POINT('',(8.88178419700125E-16,18.25,8.88178419700125E-16
));
#930=DIRECTION('',(0.,-1.,0.));
#940=DIRECTION('',(1.,0.,0.));
#950=AXIS2_PLACEMENT_3D('',#920,#930,#940);
#960=CIRCLE('',#950,6.25);
#970=EDGE_CURVE('',#790,#890,#960,.T.);
#980=ORIENTED_EDGE('',*,*,#970,.T.);
#990=EDGE_LOOP('',(#980,#910,#830,#810));
#1000=FACE_OUTER_BOUND('',#990,.T.);
#1010=ADVANCED_FACE('',(#1000),#730,.T.);
#1020=CARTESIAN_POINT('',(0.,17.91798210994,0.));
#1030=DIRECTION('',(0.,-1.,0.));
#1040=DIRECTION('',(-1.,0.,0.));
#1050=AXIS2_PLACEMENT_3D('',#1020,#1030,#1040);
#1060=CYLINDRICAL_SURFACE('',#1050,6.25);
#1070=CARTESIAN_POINT('',(6.25,17.91798210994,-7.65404249467096E-16));
#1080=DIRECTION('',(0.,-1.,0.));
#1090=VECTOR('',#1080,1.);
#1100=LINE('',#1070,#1090);
#1110=CARTESIAN_POINT('',(6.25,19.75,-7.65404249467096E-16));
#1120=VERTEX_POINT('',#1110);
#1130=EDGE_CURVE('',#1120,#890,#1100,.T.);
#1140=ORIENTED_EDGE('',*,*,#1130,.T.);
#1150=CARTESIAN_POINT('',(8.88178419700125E-16,19.75,
8.88178419700125E-16));
#1160=DIRECTION('',(0.,1.,0.));
#1170=DIRECTION('',(1.,0.,0.));
#1180=AXIS2_PLACEMENT_3D('',#1150,#1160,#1170);
#1190=CIRCLE('',#1180,6.25);
#1200=CARTESIAN_POINT('',(-6.25,19.75,0.));
#1210=VERTEX_POINT('',#1200);
#1220=EDGE_CURVE('',#1120,#1210,#1190,.T.);
#1230=ORIENTED_EDGE('',*,*,#1220,.F.);
#1240=CARTESIAN_POINT('',(-6.25,17.91798210994,0.));
#1250=DIRECTION('',(0.,-1.,0.));
#1260=VECTOR('',#1250,1.);
#1270=LINE('',#1240,#1260);
#1280=EDGE_CURVE('',#1210,#790,#1270,.T.);
#1290=ORIENTED_EDGE('',*,*,#1280,.F.);
#1300=ORIENTED_EDGE('',*,*,#970,.F.);
#1310=EDGE_LOOP('',(#1300,#1290,#1230,#1140));
#1320=FACE_OUTER_BOUND('',#1310,.T.);
#1330=ADVANCED_FACE('',(#1320),#1060,.T.);
#1340=CARTESIAN_POINT('',(8.88178419700125E-16,18.5,8.88178419700125E-16
));
#1350=DIRECTION('',(0.,1.,0.));
#1360=DIRECTION('',(1.,0.,0.));
#1370=AXIS2_PLACEMENT_3D('',#1340,#1350,#1360);
#1380=CONICAL_SURFACE('',#1370,5.,0.78539816339745);
#1390=CARTESIAN_POINT('',(-5.,18.5,2.75855020126449E-16));
#1400=DIRECTION('',(-0.707106781186549,0.707106781186546,
-8.65956056235495E-17));
#1410=VECTOR('',#1400,7.07106781186546);
#1420=LINE('',#1390,#1410);
#1430=CARTESIAN_POINT('',(-7.,20.5,3.0925660296978E-17));
#1440=VERTEX_POINT('',#1430);
#1450=EDGE_CURVE('',#1210,#1440,#1420,.T.);
#1460=ORIENTED_EDGE('',*,*,#1450,.F.);
#1470=CARTESIAN_POINT('',(8.88178419700125E-16,20.5,8.88178419700125E-16
));
#1480=DIRECTION('',(0.,1.,0.));
#1490=DIRECTION('',(1.,0.,0.));
#1500=AXIS2_PLACEMENT_3D('',#1470,#1480,#1490);
#1510=CIRCLE('',#1500,7.);
#1520=CARTESIAN_POINT('',(7.,20.5,8.88178419700125E-16));
#1530=VERTEX_POINT('',#1520);
#1540=EDGE_CURVE('',#1440,#1530,#1510,.T.);
#1550=ORIENTED_EDGE('',*,*,#1540,.F.);
#1560=CARTESIAN_POINT('',(5.,18.5,8.88178419700125E-16));
#1570=DIRECTION('',(0.707106781186549,0.707106781186546,0.));
#1580=VECTOR('',#1570,7.07106781186546);
#1590=LINE('',#1560,#1580);
#1600=EDGE_CURVE('',#1120,#1530,#1590,.T.);
#1610=ORIENTED_EDGE('',*,*,#1600,.T.);
#1620=EDGE_CURVE('',#1210,#1120,#1190,.T.);
#1630=ORIENTED_EDGE('',*,*,#1620,.T.);
#1640=EDGE_LOOP('',(#1630,#1610,#1550,#1460));
#1650=FACE_OUTER_BOUND('',#1640,.T.);
#1660=ADVANCED_FACE('',(#1650),#1380,.T.);
#1670=CARTESIAN_POINT('',(0.,22.25,0.));
#1680=DIRECTION('',(0.,-1.,0.));
#1690=DIRECTION('',(-1.,0.,0.));
#1700=AXIS2_PLACEMENT_3D('',#1670,#1680,#1690);
#1710=CYLINDRICAL_SURFACE('',#1700,7.);
#1720=CARTESIAN_POINT('',(-7.,22.25,0.));
#1730=DIRECTION('',(0.,-1.,0.));
#1740=VECTOR('',#1730,1.);
#1750=LINE('',#1720,#1740);
#1760=CARTESIAN_POINT('',(-7.,24.5,0.));
#1770=VERTEX_POINT('',#1760);
#1780=EDGE_CURVE('',#1770,#1440,#1750,.T.);
#1790=ORIENTED_EDGE('',*,*,#1780,.T.);
#1800=CARTESIAN_POINT('',(0.,24.5,0.));
#1810=DIRECTION('',(0.,-1.,0.));
#1820=DIRECTION('',(-1.,0.,0.));
#1830=AXIS2_PLACEMENT_3D('',#1800,#1810,#1820);
#1840=CIRCLE('',#1830,7.);
#1850=CARTESIAN_POINT('',(7.,24.5,-8.57252759403147E-16));
#1860=VERTEX_POINT('',#1850);
#1870=EDGE_CURVE('',#1860,#1770,#1840,.T.);
#1880=ORIENTED_EDGE('',*,*,#1870,.T.);
#1890=CARTESIAN_POINT('',(7.,22.25,-8.57252759403147E-16));
#1900=DIRECTION('',(0.,-1.,0.));
#1910=VECTOR('',#1900,1.);
#1920=LINE('',#1890,#1910);
#1930=EDGE_CURVE('',#1860,#1530,#1920,.T.);
#1940=ORIENTED_EDGE('',*,*,#1930,.F.);
#1950=ORIENTED_EDGE('',*,*,#1540,.T.);
#1960=EDGE_LOOP('',(#1950,#1940,#1880,#1790));
#1970=FACE_OUTER_BOUND('',#1960,.T.);
#1980=ADVANCED_FACE('',(#1970),#1710,.T.);
#1990=CARTESIAN_POINT('',(2.5,25.,0.));
#2000=DIRECTION('',(-0.,-1.,-0.));
#2010=DIRECTION('',(-1.,0.,0.));
#2020=AXIS2_PLACEMENT_3D('',#1990,#2000,#2010);
#2030=PLANE('',#2020);
#2040=CARTESIAN_POINT('',(0.,25.,0.));
#2050=DIRECTION('',(0.,-1.,0.));
#2060=DIRECTION('',(-1.,0.,0.));
#2070=AXIS2_PLACEMENT_3D('',#2040,#2050,#2060);
#2080=CIRCLE('',#2070,6.5);
#2090=CARTESIAN_POINT('',(-6.5,25.,0.));
#2100=VERTEX_POINT('',#2090);
#2110=CARTESIAN_POINT('',(6.5,25.,-7.9602041944578E-16));
#2120=VERTEX_POINT('',#2110);
#2130=EDGE_CURVE('',#2100,#2120,#2080,.T.);
#2140=ORIENTED_EDGE('',*,*,#2130,.F.);
#2150=EDGE_CURVE('',#2120,#2100,#2080,.T.);
#2160=ORIENTED_EDGE('',*,*,#2150,.F.);
#2170=EDGE_LOOP('',(#2160,#2140));
#2180=FACE_OUTER_BOUND('',#2170,.T.);
#2190=ADVANCED_FACE('',(#2180),#2030,.F.);
#2200=CARTESIAN_POINT('',(0.,10.,0.));
#2210=DIRECTION('',(0.,-1.,0.));
#2220=DIRECTION('',(1.,0.,0.));
#2230=AXIS2_PLACEMENT_3D('',#2200,#2210,#2220);
#2240=CONICAL_SURFACE('',#2230,1.635,1.02974425867666);
#2250=CARTESIAN_POINT('',(1.635,10.,0.));
#2260=DIRECTION('',(0.857167300702113,-0.515038074910054,0.));
#2270=VECTOR('',#2260,1.90744560444706);
#2280=LINE('',#2250,#2270);
#2290=CARTESIAN_POINT('',(-2.22044604925031E-16,10.9824071121101,
2.46519032881566E-32));
#2300=VERTEX_POINT('',#2290);
#2310=CARTESIAN_POINT('',(1.635,10.,0.));
#2320=VERTEX_POINT('',#2310);
#2330=EDGE_CURVE('',#2300,#2320,#2280,.T.);
#2340=ORIENTED_EDGE('',*,*,#2330,.F.);
#2350=CARTESIAN_POINT('',(0.,10.,0.));
#2360=DIRECTION('',(0.,1.,0.));
#2370=DIRECTION('',(1.,0.,0.));
#2380=AXIS2_PLACEMENT_3D('',#2350,#2360,#2370);
#2390=CIRCLE('',#2380,1.635);
#2400=CARTESIAN_POINT('',(-1.635,10.,2.00229751660592E-16));
#2410=VERTEX_POINT('',#2400);
#2420=EDGE_CURVE('',#2320,#2410,#2390,.T.);
#2430=ORIENTED_EDGE('',*,*,#2420,.F.);
#2440=CARTESIAN_POINT('',(-1.635,10.,2.00229751660592E-16));
#2450=DIRECTION('',(-0.857167300702113,-0.515038074910054,
1.04972719113862E-16));
#2460=VECTOR('',#2450,1.90744560444706);
#2470=LINE('',#2440,#2460);
#2480=EDGE_CURVE('',#2300,#2410,#2470,.T.);
#2490=ORIENTED_EDGE('',*,*,#2480,.T.);
#2500=EDGE_LOOP('',(#2490,#2430,#2340));
#2510=FACE_OUTER_BOUND('',#2500,.T.);
#2520=ADVANCED_FACE('',(#2510),#2240,.F.);
#2530=CARTESIAN_POINT('',(1.6425,7.,0.));
#2540=DIRECTION('',(-0.,1.,0.));
#2550=DIRECTION('',(1.,0.,0.));
#2560=AXIS2_PLACEMENT_3D('',#2530,#2540,#2550);
#2570=PLANE('',#2560);
#2580=CARTESIAN_POINT('',(0.,7.,0.));
#2590=DIRECTION('',(0.,1.,0.));
#2600=DIRECTION('',(1.,0.,0.));
#2610=AXIS2_PLACEMENT_3D('',#2580,#2590,#2600);
#2620=CIRCLE('',#2610,1.635);
#2630=CARTESIAN_POINT('',(1.635,7.,0.));
#2640=VERTEX_POINT('',#2630);
#2650=CARTESIAN_POINT('',(-1.635,7.,2.00229751660592E-16));
#2660=VERTEX_POINT('',#2650);
#2670=EDGE_CURVE('',#2640,#2660,#2620,.T.);
#2680=ORIENTED_EDGE('',*,*,#2670,.T.);
#2690=CARTESIAN_POINT('',(-2.6292805322213E-16,7.,1.635));
#2700=VERTEX_POINT('',#2690);
#2710=EDGE_CURVE('',#2700,#2640,#2620,.T.);
#2720=ORIENTED_EDGE('',*,*,#2710,.T.);
#2730=EDGE_CURVE('',#2660,#2700,#2620,.T.);
#2740=ORIENTED_EDGE('',*,*,#2730,.T.);
#2750=EDGE_LOOP('',(#2740,#2720,#2680));
#2760=FACE_BOUND('',#2750,.T.);
#2770=CARTESIAN_POINT('',(0.,7.,0.));
#2780=DIRECTION('',(0.,-1.,0.));
#2790=DIRECTION('',(1.,0.,0.));
#2800=AXIS2_PLACEMENT_3D('',#2770,#2780,#2790);
#2810=CIRCLE('',#2800,1.65);
#2820=CARTESIAN_POINT('',(-1.65,7.,-2.02066721859313E-16));
#2830=VERTEX_POINT('',#2820);
#2840=CARTESIAN_POINT('',(1.65,7.,0.));
#2850=VERTEX_POINT('',#2840);
#2860=EDGE_CURVE('',#2830,#2850,#2810,.T.);
#2870=ORIENTED_EDGE('',*,*,#2860,.T.);
#2880=EDGE_CURVE('',#2850,#2830,#2810,.T.);
#2890=ORIENTED_EDGE('',*,*,#2880,.T.);
#2900=EDGE_LOOP('',(#2890,#2870));
#2910=FACE_OUTER_BOUND('',#2900,.T.);
#2920=ADVANCED_FACE('',(#2760,#2910),#2570,.F.);
#2930=CARTESIAN_POINT('',(0.,4.71844785465692E-16,0.));
#2940=DIRECTION('',(0.,-1.,0.));
#2950=DIRECTION('',(-1.,0.,0.));
#2960=AXIS2_PLACEMENT_3D('',#2930,#2940,#2950);
#2970=CONICAL_SURFACE('',#2960,2.5,0.785398163397448);
#2980=CARTESIAN_POINT('',(2.5,4.71844785465692E-16,-3.06161699786838E-16
));
#2990=DIRECTION('',(0.707106781186548,-0.707106781186547,
-8.65956056235493E-17));
#3000=VECTOR('',#2990,3.53553390593274);
#3010=LINE('',#2980,#3000);
#3020=CARTESIAN_POINT('',(1.65,0.850000000000001,-2.02066721859313E-16))
;
#3030=VERTEX_POINT('',#3020);
#3040=EDGE_CURVE('',#3030,#120,#3010,.T.);
#3050=ORIENTED_EDGE('',*,*,#3040,.T.);
#3060=CARTESIAN_POINT('',(0.,0.850000000000001,0.));
#3070=DIRECTION('',(0.,1.,0.));
#3080=DIRECTION('',(1.,0.,0.));
#3090=AXIS2_PLACEMENT_3D('',#3060,#3070,#3080);
#3100=CIRCLE('',#3090,1.65);
#3110=CARTESIAN_POINT('',(-1.65,0.850000000000001,0.));
#3120=VERTEX_POINT('',#3110);
#3130=EDGE_CURVE('',#3120,#3030,#3100,.T.);
#3140=ORIENTED_EDGE('',*,*,#3130,.T.);
#3150=CARTESIAN_POINT('',(-2.5,4.71844785465692E-16,0.));
#3160=DIRECTION('',(-0.707106781186548,-0.707106781186547,0.));
#3170=VECTOR('',#3160,3.53553390593274);
#3180=LINE('',#3150,#3170);
#3190=EDGE_CURVE('',#3120,#140,#3180,.T.);
#3200=ORIENTED_EDGE('',*,*,#3190,.F.);
#3210=ORIENTED_EDGE('',*,*,#170,.F.);
#3220=EDGE_LOOP('',(#3210,#3200,#3140,#3050));
#3230=FACE_OUTER_BOUND('',#3220,.T.);
#3240=ADVANCED_FACE('',(#3230),#2970,.F.);
#3250=CARTESIAN_POINT('',(0.,8.5,0.));
#3260=DIRECTION('',(0.,-1.,0.));
#3270=DIRECTION('',(1.,0.,0.));
#3280=AXIS2_PLACEMENT_3D('',#3250,#3260,#3270);
#3290=CYLINDRICAL_SURFACE('',#3280,1.635);
#3300=ORIENTED_EDGE('',*,*,#2710,.F.);
#3310=CARTESIAN_POINT('',(1.635,8.5,0.));
#3320=DIRECTION('',(0.,-1.,0.));
#3330=VECTOR('',#3320,1.);
#3340=LINE('',#3310,#3330);
#3350=EDGE_CURVE('',#2320,#2640,#3340,.T.);
#3360=ORIENTED_EDGE('',*,*,#3350,.T.);
#3370=CARTESIAN_POINT('',(-2.6292805322213E-16,10.,1.635));
#3380=VERTEX_POINT('',#3370);
#3390=EDGE_CURVE('',#3380,#2320,#2390,.T.);
#3400=ORIENTED_EDGE('',*,*,#3390,.T.);
#3410=EDGE_CURVE('',#2410,#3380,#2390,.T.);
#3420=ORIENTED_EDGE('',*,*,#3410,.T.);
#3430=CARTESIAN_POINT('',(-1.635,8.5,2.00229751660592E-16));
#3440=DIRECTION('',(0.,-1.,0.));
#3450=VECTOR('',#3440,1.);
#3460=LINE('',#3430,#3450);
#3470=EDGE_CURVE('',#2410,#2660,#3460,.T.);
#3480=ORIENTED_EDGE('',*,*,#3470,.F.);
#3490=ORIENTED_EDGE('',*,*,#2730,.F.);
#3500=EDGE_LOOP('',(#3490,#3480,#3420,#3400,#3360,#3300));
#3510=FACE_OUTER_BOUND('',#3500,.T.);
#3520=ADVANCED_FACE('',(#3510),#3290,.F.);
#3530=CARTESIAN_POINT('',(0.,3.5,0.));
#3540=DIRECTION('',(0.,-1.,0.));
#3550=DIRECTION('',(1.,0.,0.));
#3560=AXIS2_PLACEMENT_3D('',#3530,#3540,#3550);
#3570=CYLINDRICAL_SURFACE('',#3560,1.65);
#3580=CARTESIAN_POINT('',(1.65,3.5,0.));
#3590=DIRECTION('',(0.,-1.,0.));
#3600=VECTOR('',#3590,1.);
#3610=LINE('',#3580,#3600);
#3620=EDGE_CURVE('',#2850,#3030,#3610,.T.);
#3630=ORIENTED_EDGE('',*,*,#3620,.T.);
#3640=ORIENTED_EDGE('',*,*,#2880,.F.);
#3650=CARTESIAN_POINT('',(-1.65,3.5,-2.02066721859313E-16));
#3660=DIRECTION('',(0.,-1.,0.));
#3670=VECTOR('',#3660,1.);
#3680=LINE('',#3650,#3670);
#3690=EDGE_CURVE('',#2830,#3120,#3680,.T.);
#3700=ORIENTED_EDGE('',*,*,#3690,.F.);
#3710=ORIENTED_EDGE('',*,*,#3130,.F.);
#3720=EDGE_LOOP('',(#3710,#3700,#3640,#3630));
#3730=FACE_OUTER_BOUND('',#3720,.T.);
#3740=ADVANCED_FACE('',(#3730),#3570,.F.);
#3750=COLOUR_RGB('',1.,0.,0.);
#3760=FILL_AREA_STYLE_COLOUR('',#3750);
#3770=FILL_AREA_STYLE('',(#3760));
#3780=SURFACE_STYLE_FILL_AREA(#3770);
#3790=SURFACE_SIDE_STYLE('',(#3780));
#3800=SURFACE_STYLE_USAGE(.BOTH.,#3790);
#3810=PRESENTATION_STYLE_ASSIGNMENT((#3800));
#3820=CARTESIAN_POINT('',(0.,24.5,0.));
#3830=DIRECTION('',(0.,-1.,0.));
#3840=DIRECTION('',(-1.,0.,0.));
#3850=AXIS2_PLACEMENT_3D('',#3820,#3830,#3840);
#3860=CONICAL_SURFACE('',#3850,7.,0.785398163397448);
#3870=CARTESIAN_POINT('',(-7.,24.5,0.));
#3880=DIRECTION('',(-0.707106781186548,-0.707106781186548,0.));
#3890=VECTOR('',#3880,9.89949493661167);
#3900=LINE('',#3870,#3890);
#3910=EDGE_CURVE('',#2100,#1770,#3900,.T.);
#3920=ORIENTED_EDGE('',*,*,#3910,.T.);
#3930=ORIENTED_EDGE('',*,*,#2150,.T.);
#3940=CARTESIAN_POINT('',(7.,24.5,-8.57252759403147E-16));
#3950=DIRECTION('',(0.707106781186548,-0.707106781186548,
-8.65956056235493E-17));
#3960=VECTOR('',#3950,9.89949493661167);
#3970=LINE('',#3940,#3960);
#3980=EDGE_CURVE('',#2120,#1860,#3970,.T.);
#3990=ORIENTED_EDGE('',*,*,#3980,.F.);
#4000=ORIENTED_EDGE('',*,*,#1870,.F.);
#4010=EDGE_LOOP('',(#4000,#3990,#3930,#3920));
#4020=FACE_OUTER_BOUND('',#4010,.T.);
#4030=ADVANCED_FACE('',(#4020),#3860,.T.);
#4040=CARTESIAN_POINT('',(0.,4.71844785465692E-16,0.));
#4050=DIRECTION('',(0.,-1.,0.));
#4060=DIRECTION('',(-1.,0.,0.));
#4070=AXIS2_PLACEMENT_3D('',#4040,#4050,#4060);
#4080=CONICAL_SURFACE('',#4070,2.5,0.785398163397448);
#4090=EDGE_CURVE('',#3030,#3120,#3100,.T.);
#4100=ORIENTED_EDGE('',*,*,#4090,.T.);
#4110=ORIENTED_EDGE('',*,*,#3040,.F.);
#4120=ORIENTED_EDGE('',*,*,#150,.F.);
#4130=ORIENTED_EDGE('',*,*,#3190,.T.);
#4140=EDGE_LOOP('',(#4130,#4120,#4110,#4100));
#4150=FACE_OUTER_BOUND('',#4140,.T.);
#4160=ADVANCED_FACE('',(#4150),#4080,.F.);
#4170=CARTESIAN_POINT('',(0.,3.5,0.));
#4180=DIRECTION('',(0.,-1.,0.));
#4190=DIRECTION('',(1.,0.,0.));
#4200=AXIS2_PLACEMENT_3D('',#4170,#4180,#4190);
#4210=CYLINDRICAL_SURFACE('',#4200,1.65);
#4220=ORIENTED_EDGE('',*,*,#4090,.F.);
#4230=ORIENTED_EDGE('',*,*,#3690,.T.);
#4240=ORIENTED_EDGE('',*,*,#2860,.F.);
#4250=ORIENTED_EDGE('',*,*,#3620,.F.);
#4260=EDGE_LOOP('',(#4250,#4240,#4230,#4220));
#4270=FACE_OUTER_BOUND('',#4260,.T.);
#4280=ADVANCED_FACE('',(#4270),#4210,.F.);
#4290=COLOUR_RGB('',1.,0.,0.);
#4300=FILL_AREA_STYLE_COLOUR('',#4290);
#4310=FILL_AREA_STYLE('',(#4300));
#4320=SURFACE_STYLE_FILL_AREA(#4310);
#4330=SURFACE_SIDE_STYLE('',(#4320));
#4340=SURFACE_STYLE_USAGE(.BOTH.,#4330);
#4350=PRESENTATION_STYLE_ASSIGNMENT((#4340));
#4360=CARTESIAN_POINT('',(8.88178419700125E-16,18.5,8.88178419700125E-16
));
#4370=DIRECTION('',(0.,1.,0.));
#4380=DIRECTION('',(1.,0.,0.));
#4390=AXIS2_PLACEMENT_3D('',#4360,#4370,#4380);
#4400=CONICAL_SURFACE('',#4390,5.,0.78539816339745);
#4410=EDGE_CURVE('',#1530,#1440,#1510,.T.);
#4420=ORIENTED_EDGE('',*,*,#4410,.F.);
#4430=ORIENTED_EDGE('',*,*,#1450,.T.);
#4440=ORIENTED_EDGE('',*,*,#1220,.T.);
#4450=ORIENTED_EDGE('',*,*,#1600,.F.);
#4460=EDGE_LOOP('',(#4450,#4440,#4430,#4420));
#4470=FACE_OUTER_BOUND('',#4460,.T.);
#4480=ADVANCED_FACE('',(#4470),#4400,.T.);
#4490=CARTESIAN_POINT('',(0.,24.5,0.));
#4500=DIRECTION('',(0.,-1.,0.));
#4510=DIRECTION('',(-1.,0.,0.));
#4520=AXIS2_PLACEMENT_3D('',#4490,#4500,#4510);
#4530=CONICAL_SURFACE('',#4520,7.,0.785398163397448);
#4540=EDGE_CURVE('',#1770,#1860,#1840,.T.);
#4550=ORIENTED_EDGE('',*,*,#4540,.F.);
#4560=ORIENTED_EDGE('',*,*,#3980,.T.);
#4570=ORIENTED_EDGE('',*,*,#2130,.T.);
#4580=ORIENTED_EDGE('',*,*,#3910,.F.);
#4590=EDGE_LOOP('',(#4580,#4570,#4560,#4550));
#4600=FACE_OUTER_BOUND('',#4590,.T.);
#4610=ADVANCED_FACE('',(#4600),#4530,.T.);
#4620=CARTESIAN_POINT('',(0.,22.25,0.));
#4630=DIRECTION('',(0.,-1.,0.));
#4640=DIRECTION('',(-1.,0.,0.));
#4650=AXIS2_PLACEMENT_3D('',#4620,#4630,#4640);
#4660=CYLINDRICAL_SURFACE('',#4650,7.);
#4670=ORIENTED_EDGE('',*,*,#4410,.T.);
#4680=ORIENTED_EDGE('',*,*,#1930,.T.);
#4690=ORIENTED_EDGE('',*,*,#4540,.T.);
#4700=ORIENTED_EDGE('',*,*,#1780,.F.);
#4710=EDGE_LOOP('',(#4700,#4690,#4680,#4670));
#4720=FACE_OUTER_BOUND('',#4710,.T.);
#4730=ADVANCED_FACE('',(#4720),#4660,.T.);
#4740=CARTESIAN_POINT('',(0.,17.91798210994,0.));
#4750=DIRECTION('',(0.,-1.,0.));
#4760=DIRECTION('',(-1.,0.,0.));
#4770=AXIS2_PLACEMENT_3D('',#4740,#4750,#4760);
#4780=CYLINDRICAL_SURFACE('',#4770,6.25);
#4790=ORIENTED_EDGE('',*,*,#1130,.F.);
#4800=EDGE_CURVE('',#890,#790,#960,.T.);
#4810=ORIENTED_EDGE('',*,*,#4800,.F.);
#4820=ORIENTED_EDGE('',*,*,#1280,.T.);
#4830=ORIENTED_EDGE('',*,*,#1620,.F.);
#4840=EDGE_LOOP('',(#4830,#4820,#4810,#4790));
#4850=FACE_OUTER_BOUND('',#4840,.T.);
#4860=ADVANCED_FACE('',(#4850),#4780,.T.);
#4870=CARTESIAN_POINT('',(0.,8.5,0.));
#4880=DIRECTION('',(0.,-1.,0.));
#4890=DIRECTION('',(1.,0.,0.));
#4900=AXIS2_PLACEMENT_3D('',#4870,#4880,#4890);
#4910=CYLINDRICAL_SURFACE('',#4900,1.635);
#4920=ORIENTED_EDGE('',*,*,#2670,.F.);
#4930=ORIENTED_EDGE('',*,*,#3470,.T.);
#4940=ORIENTED_EDGE('',*,*,#2420,.T.);
#4950=ORIENTED_EDGE('',*,*,#3350,.F.);
#4960=EDGE_LOOP('',(#4950,#4940,#4930,#4920));
#4970=FACE_OUTER_BOUND('',#4960,.T.);
#4980=ADVANCED_FACE('',(#4970),#4910,.F.);
#4990=CARTESIAN_POINT('',(0.,8.25,0.));
#5000=DIRECTION('',(0.,-1.,0.));
#5010=DIRECTION('',(-1.,0.,0.));
#5020=AXIS2_PLACEMENT_3D('',#4990,#5000,#5010);
#5030=CYLINDRICAL_SURFACE('',#5020,7.);
#5040=ORIENTED_EDGE('',*,*,#480,.F.);
#5050=ORIENTED_EDGE('',*,*,#300,.F.);
#5060=ORIENTED_EDGE('',*,*,#630,.T.);
#5070=ORIENTED_EDGE('',*,*,#820,.T.);
#5080=EDGE_LOOP('',(#5070,#5060,#5050,#5040));
#5090=FACE_OUTER_BOUND('',#5080,.T.);
#5100=ADVANCED_FACE('',(#5090),#5030,.T.);
#5110=CARTESIAN_POINT('',(8.88178419700125E-16,19.5,8.88178419700125E-16
));
#5120=DIRECTION('',(0.,-1.,0.));
#5130=DIRECTION('',(1.,0.,0.));
#5140=AXIS2_PLACEMENT_3D('',#5110,#5120,#5130);
#5150=CONICAL_SURFACE('',#5140,5.,0.785398163397449);
#5160=ORIENTED_EDGE('',*,*,#570,.F.);
#5170=ORIENTED_EDGE('',*,*,#800,.T.);
#5180=ORIENTED_EDGE('',*,*,#4800,.T.);
#5190=ORIENTED_EDGE('',*,*,#900,.F.);
#5200=EDGE_LOOP('',(#5190,#5180,#5170,#5160));
#5210=FACE_OUTER_BOUND('',#5200,.T.);
#5220=ADVANCED_FACE('',(#5210),#5150,.T.);
#5230=CARTESIAN_POINT('',(0.,10.,0.));
#5240=DIRECTION('',(0.,-1.,0.));
#5250=DIRECTION('',(1.,0.,0.));
#5260=AXIS2_PLACEMENT_3D('',#5230,#5240,#5250);
#5270=CONICAL_SURFACE('',#5260,1.635,1.02974425867666);
#5280=ORIENTED_EDGE('',*,*,#3390,.F.);
#5290=ORIENTED_EDGE('',*,*,#2330,.T.);
#5300=ORIENTED_EDGE('',*,*,#2480,.F.);
#5310=ORIENTED_EDGE('',*,*,#3410,.F.);
#5320=EDGE_LOOP('',(#5310,#5300,#5290,#5280));
#5330=FACE_OUTER_BOUND('',#5320,.T.);
#5340=ADVANCED_FACE('',(#5330),#5270,.F.);
#5350=CLOSED_SHELL('',(#360,#680,#1010,#1330,#1660,#1980,#2190,#2520,
#2920,#3240,#3520,#3740,#4030,#4160,#4280,#4480,#4610,#4730,#4860,#4980,
#5100,#5220,#5340));
#5360=MANIFOLD_SOLID_BREP('',#5350);
#5370=CARTESIAN_POINT('',(0.,0.,0.));
#5380=DIRECTION('',(0.,0.,1.));
#5390=DIRECTION('',(1.,0.,0.));
#5400=AXIS2_PLACEMENT_3D('',#5370,#5380,#5390);
#5410=APPLICATION_CONTEXT(' ');
#5420=APPLICATION_PROTOCOL_DEFINITION(' ','automotive_design',1998,#5410
);
#5430=PRODUCT_CONTEXT('',#5410,'mechanical');
#5440=PRODUCT_DEFINITION_CONTEXT('part definition',#5410,'design');
#5450=PRODUCT('NI-9951','NI-9951','',(#5430));
#5460=PRODUCT_RELATED_PRODUCT_CATEGORY('part',' ',(#5450));
#5470=PRODUCT_DEFINITION_FORMATION_WITH_SPECIFIED_SOURCE('','',#5450,
.BOUGHT.);
#5480=PRODUCT_DEFINITION('',' ',#5470,#5440);
#5490=PRODUCT_DEFINITION_SHAPE('','',#5480);
#5500=DIMENSIONAL_EXPONENTS(1.,0.,0.,0.,0.,0.,0.);
#5510=DIMENSIONAL_EXPONENTS(0.,0.,0.,0.,0.,0.,0.);
#5520=DIMENSIONAL_EXPONENTS(0.,0.,0.,0.,0.,0.,0.);
#5530=(LENGTH_UNIT() NAMED_UNIT(*) SI_UNIT(.MILLI.,.METRE.));
#5540=(NAMED_UNIT(*) PLANE_ANGLE_UNIT() SI_UNIT($,.RADIAN.));
#5550=(NAMED_UNIT(*) SI_UNIT($,.STERADIAN.) SOLID_ANGLE_UNIT());
#5560=(GEOMETRIC_REPRESENTATION_CONTEXT(3) 
GLOBAL_UNCERTAINTY_ASSIGNED_CONTEXT((#5570)) 
GLOBAL_UNIT_ASSIGNED_CONTEXT((#5530,#5540,#5550)) REPRESENTATION_CONTEXT
('',''));
#5570=UNCERTAINTY_MEASURE_WITH_UNIT(LENGTH_MEASURE(1.E-6),#5530,
'distance_accuracy_value','maximum gap value');
#5580=ADVANCED_BREP_SHAPE_REPRESENTATION('',(#5400,#5360),#5560);
#5590=SHAPE_DEFINITION_REPRESENTATION(#5490,#5580);
#5600=COLOUR_RGB('',0.600000023841858,0.600000023841858,
0.600000023841858);
#5610=FILL_AREA_STYLE_COLOUR('',#5600);
#5620=FILL_AREA_STYLE('',(#5610));
#5630=SURFACE_STYLE_FILL_AREA(#5620);
#5640=SURFACE_SIDE_STYLE('',(#5630));
#5650=SURFACE_STYLE_USAGE(.BOTH.,#5640);
#5660=PRESENTATION_STYLE_ASSIGNMENT((#5650));
#5670=STYLED_ITEM('',(#5660),#5360);
#5680=OVER_RIDING_STYLED_ITEM('',(#3810),#3740,#5670);
#5690=OVER_RIDING_STYLED_ITEM('',(#4350),#4280,#5670);
#5700=DRAUGHTING_MODEL('',(#5670,#5680,#5690),#5560);
ENDSEC;
END-ISO-10303-21;
