ISO-10303-21;
HEADER;
FILE_DESCRIPTION(('Creo Elements/Direct Modeling STEP Export'),'2;1');
FILE_NAME('2280-10.stp','2022-05-04T10:27:32',(''),(''),
'Creo Elements/Direct Modeling STEP processor for AP214 (Solid Model)',
'Creo Elements/Direct Modeling 20.0  12-Nov-2016 (C) Parametric Technolo
gy GmbH','');
FILE_SCHEMA(('AUTOMOTIVE_DESIGN { 1 0 10303 214 1 1 1 1 }'));
ENDSEC;
DATA;
#10=CARTESIAN_POINT('',(2.5,4.71844785465692E-16,0.));
#20=DIRECTION('',(-0.,-1.,-0.));
#30=DIRECTION('',(-1.,0.,0.));
#40=AXIS2_PLACEMENT_3D('',#10,#20,#30);
#50=PLANE('',#40);
#60=CARTESIAN_POINT('',(0.,8.88178419700125E-16,0.));
#70=DIRECTION('',(0.,1.,0.));
#80=DIRECTION('',(1.,0.,0.));
#90=AXIS2_PLACEMENT_3D('',#60,#70,#80);
#100=CIRCLE('',#90,5.);
#110=CARTESIAN_POINT('',(-5.,0.,0.));
#120=VERTEX_POINT('',#110);
#130=CARTESIAN_POINT('',(5.,0.,-6.12323399573677E-16));
#140=VERTEX_POINT('',#130);
#150=EDGE_CURVE('',#120,#140,#100,.T.);
#160=ORIENTED_EDGE('',*,*,#150,.F.);
#170=EDGE_CURVE('',#140,#120,#100,.T.);
#180=ORIENTED_EDGE('',*,*,#170,.F.);
#190=EDGE_LOOP('',(#180,#160));
#200=FACE_OUTER_BOUND('',#190,.T.);
#210=CARTESIAN_POINT('',(0.,4.71844785465692E-16,0.));
#220=DIRECTION('',(0.,-1.,0.));
#230=DIRECTION('',(-1.,0.,0.));
#240=AXIS2_PLACEMENT_3D('',#210,#220,#230);
#250=CIRCLE('',#240,2.5);
#260=CARTESIAN_POINT('',(-2.5,2.22044604925031E-16,0.));
#270=VERTEX_POINT('',#260);
#280=CARTESIAN_POINT('',(2.5,2.22044604925031E-16,-3.06161699786838E-16)
);
#290=VERTEX_POINT('',#280);
#300=EDGE_CURVE('',#270,#290,#250,.T.);
#310=ORIENTED_EDGE('',*,*,#300,.F.);
#320=EDGE_CURVE('',#290,#270,#250,.T.);
#330=ORIENTED_EDGE('',*,*,#320,.F.);
#340=EDGE_LOOP('',(#330,#310));
#350=FACE_BOUND('',#340,.T.);
#360=ADVANCED_FACE('',(#200,#350),#50,.T.);
#370=CARTESIAN_POINT('',(0.,8.25,0.));
#380=DIRECTION('',(0.,-1.,0.));
#390=DIRECTION('',(-1.,0.,0.));
#400=AXIS2_PLACEMENT_3D('',#370,#380,#390);
#410=CYLINDRICAL_SURFACE('',#400,5.);
#420=CARTESIAN_POINT('',(5.,8.25,-6.12323399573677E-16));
#430=DIRECTION('',(0.,-1.,0.));
#440=VECTOR('',#430,1.);
#450=LINE('',#420,#440);
#460=CARTESIAN_POINT('',(5.,16.5,-6.12323399573677E-16));
#470=VERTEX_POINT('',#460);
#480=EDGE_CURVE('',#470,#140,#450,.T.);
#490=ORIENTED_EDGE('',*,*,#480,.T.);
#500=CARTESIAN_POINT('',(0.,16.5,0.));
#510=DIRECTION('',(0.,-1.,0.));
#520=DIRECTION('',(-1.,0.,0.));
#530=AXIS2_PLACEMENT_3D('',#500,#510,#520);
#540=CIRCLE('',#530,5.);
#550=CARTESIAN_POINT('',(-5.,16.5,0.));
#560=VERTEX_POINT('',#550);
#570=EDGE_CURVE('',#560,#470,#540,.T.);
#580=ORIENTED_EDGE('',*,*,#570,.T.);
#590=CARTESIAN_POINT('',(-5.,8.25,0.));
#600=DIRECTION('',(0.,-1.,0.));
#610=VECTOR('',#600,1.);
#620=LINE('',#590,#610);
#630=EDGE_CURVE('',#560,#120,#620,.T.);
#640=ORIENTED_EDGE('',*,*,#630,.F.);
#650=ORIENTED_EDGE('',*,*,#170,.T.);
#660=EDGE_LOOP('',(#650,#640,#580,#490));
#670=FACE_OUTER_BOUND('',#660,.T.);
#680=ADVANCED_FACE('',(#670),#410,.T.);
#690=CARTESIAN_POINT('',(0.,16.5,0.));
#700=DIRECTION('',(0.,-1.,0.));
#710=DIRECTION('',(1.,0.,0.));
#720=AXIS2_PLACEMENT_3D('',#690,#700,#710);
#730=CONICAL_SURFACE('',#720,5.,0.785398163397449);
#740=CARTESIAN_POINT('',(-5.,16.5,6.12323399573677E-16));
#750=DIRECTION('',(-0.707106781186548,-0.707106781186547,
8.65956056235494E-17));
#760=VECTOR('',#750,7.07106781186547);
#770=LINE('',#740,#760);
#780=CARTESIAN_POINT('',(-4.25,17.25,5.20474889637625E-16));
#790=VERTEX_POINT('',#780);
#800=EDGE_CURVE('',#790,#560,#770,.T.);
#810=ORIENTED_EDGE('',*,*,#800,.F.);
#820=ORIENTED_EDGE('',*,*,#570,.F.);
#830=CARTESIAN_POINT('',(5.,16.5,0.));
#840=DIRECTION('',(0.707106781186548,-0.707106781186547,0.));
#850=VECTOR('',#840,7.07106781186547);
#860=LINE('',#830,#850);
#870=CARTESIAN_POINT('',(4.25,17.25,0.));
#880=VERTEX_POINT('',#870);
#890=EDGE_CURVE('',#880,#470,#860,.T.);
#900=ORIENTED_EDGE('',*,*,#890,.T.);
#910=CARTESIAN_POINT('',(0.,17.25,0.));
#920=DIRECTION('',(0.,-1.,0.));
#930=DIRECTION('',(-1.,0.,0.));
#940=AXIS2_PLACEMENT_3D('',#910,#920,#930);
#950=CIRCLE('',#940,4.25);
#960=EDGE_CURVE('',#790,#880,#950,.T.);
#970=ORIENTED_EDGE('',*,*,#960,.T.);
#980=EDGE_LOOP('',(#970,#900,#820,#810));
#990=FACE_OUTER_BOUND('',#980,.T.);
#1000=ADVANCED_FACE('',(#990),#730,.T.);
#1010=CARTESIAN_POINT('',(0.,17.91798210994,0.));
#1020=DIRECTION('',(0.,-1.,0.));
#1030=DIRECTION('',(-1.,0.,0.));
#1040=AXIS2_PLACEMENT_3D('',#1010,#1020,#1030);
#1050=CYLINDRICAL_SURFACE('',#1040,4.25);
#1060=CARTESIAN_POINT('',(4.25,17.91798210994,-5.20474889637625E-16));
#1070=DIRECTION('',(0.,-1.,0.));
#1080=VECTOR('',#1070,1.);
#1090=LINE('',#1060,#1080);
#1100=CARTESIAN_POINT('',(4.25,18.75,-5.20474889637625E-16));
#1110=VERTEX_POINT('',#1100);
#1120=EDGE_CURVE('',#1110,#880,#1090,.T.);
#1130=ORIENTED_EDGE('',*,*,#1120,.T.);
#1140=CARTESIAN_POINT('',(0.,18.75,0.));
#1150=DIRECTION('',(0.,1.,0.));
#1160=DIRECTION('',(1.,0.,0.));
#1170=AXIS2_PLACEMENT_3D('',#1140,#1150,#1160);
#1180=CIRCLE('',#1170,4.25);
#1190=CARTESIAN_POINT('',(-4.25,18.75,0.));
#1200=VERTEX_POINT('',#1190);
#1210=EDGE_CURVE('',#1110,#1200,#1180,.T.);
#1220=ORIENTED_EDGE('',*,*,#1210,.F.);
#1230=CARTESIAN_POINT('',(-4.25,17.91798210994,0.));
#1240=DIRECTION('',(0.,-1.,0.));
#1250=VECTOR('',#1240,1.);
#1260=LINE('',#1230,#1250);
#1270=EDGE_CURVE('',#1200,#790,#1260,.T.);
#1280=ORIENTED_EDGE('',*,*,#1270,.F.);
#1290=ORIENTED_EDGE('',*,*,#960,.F.);
#1300=EDGE_LOOP('',(#1290,#1280,#1220,#1130));
#1310=FACE_OUTER_BOUND('',#1300,.T.);
#1320=ADVANCED_FACE('',(#1310),#1050,.T.);
#1330=CARTESIAN_POINT('',(0.,19.5,0.));
#1340=DIRECTION('',(0.,1.,0.));
#1350=DIRECTION('',(1.,0.,0.));
#1360=AXIS2_PLACEMENT_3D('',#1330,#1340,#1350);
#1370=CONICAL_SURFACE('',#1360,5.,0.78539816339745);
#1380=CARTESIAN_POINT('',(-5.,19.5,-6.12323399573677E-16));
#1390=DIRECTION('',(-0.707106781186549,0.707106781186546,
-8.65956056235495E-17));
#1400=VECTOR('',#1390,7.07106781186546);
#1410=LINE('',#1380,#1400);
#1420=CARTESIAN_POINT('',(-5.,19.5,-6.12323399573677E-16));
#1430=VERTEX_POINT('',#1420);
#1440=EDGE_CURVE('',#1200,#1430,#1410,.T.);
#1450=ORIENTED_EDGE('',*,*,#1440,.F.);
#1460=CARTESIAN_POINT('',(0.,19.5,0.));
#1470=DIRECTION('',(0.,1.,0.));
#1480=DIRECTION('',(1.,0.,0.));
#1490=AXIS2_PLACEMENT_3D('',#1460,#1470,#1480);
#1500=CIRCLE('',#1490,5.);
#1510=CARTESIAN_POINT('',(5.,19.5,0.));
#1520=VERTEX_POINT('',#1510);
#1530=EDGE_CURVE('',#1430,#1520,#1500,.T.);
#1540=ORIENTED_EDGE('',*,*,#1530,.F.);
#1550=CARTESIAN_POINT('',(5.,19.5,0.));
#1560=DIRECTION('',(0.707106781186549,0.707106781186546,0.));
#1570=VECTOR('',#1560,7.07106781186546);
#1580=LINE('',#1550,#1570);
#1590=EDGE_CURVE('',#1110,#1520,#1580,.T.);
#1600=ORIENTED_EDGE('',*,*,#1590,.T.);
#1610=EDGE_CURVE('',#1200,#1110,#1180,.T.);
#1620=ORIENTED_EDGE('',*,*,#1610,.T.);
#1630=EDGE_LOOP('',(#1620,#1600,#1540,#1450));
#1640=FACE_OUTER_BOUND('',#1630,.T.);
#1650=ADVANCED_FACE('',(#1640),#1370,.T.);
#1660=CARTESIAN_POINT('',(0.,22.25,0.));
#1670=DIRECTION('',(0.,-1.,0.));
#1680=DIRECTION('',(-1.,0.,0.));
#1690=AXIS2_PLACEMENT_3D('',#1660,#1670,#1680);
#1700=CYLINDRICAL_SURFACE('',#1690,5.);
#1710=CARTESIAN_POINT('',(5.,22.25,-6.12323399573677E-16));
#1720=DIRECTION('',(0.,-1.,0.));
#1730=VECTOR('',#1720,1.);
#1740=LINE('',#1710,#1730);
#1750=CARTESIAN_POINT('',(5.,24.5,-6.12323399573677E-16));
#1760=VERTEX_POINT('',#1750);
#1770=EDGE_CURVE('',#1760,#1520,#1740,.T.);
#1780=ORIENTED_EDGE('',*,*,#1770,.T.);
#1790=CARTESIAN_POINT('',(0.,24.5,0.));
#1800=DIRECTION('',(0.,1.,0.));
#1810=DIRECTION('',(1.,0.,0.));
#1820=AXIS2_PLACEMENT_3D('',#1790,#1800,#1810);
#1830=CIRCLE('',#1820,5.);
#1840=CARTESIAN_POINT('',(-5.,24.5,0.));
#1850=VERTEX_POINT('',#1840);
#1860=EDGE_CURVE('',#1760,#1850,#1830,.T.);
#1870=ORIENTED_EDGE('',*,*,#1860,.F.);
#1880=CARTESIAN_POINT('',(-5.,22.25,0.));
#1890=DIRECTION('',(0.,-1.,0.));
#1900=VECTOR('',#1890,1.);
#1910=LINE('',#1880,#1900);
#1920=EDGE_CURVE('',#1850,#1430,#1910,.T.);
#1930=ORIENTED_EDGE('',*,*,#1920,.F.);
#1940=EDGE_CURVE('',#1520,#1430,#1500,.T.);
#1950=ORIENTED_EDGE('',*,*,#1940,.T.);
#1960=EDGE_LOOP('',(#1950,#1930,#1870,#1780));
#1970=FACE_OUTER_BOUND('',#1960,.T.);
#1980=ADVANCED_FACE('',(#1970),#1700,.T.);
#1990=CARTESIAN_POINT('',(2.5,25.,0.));
#2000=DIRECTION('',(-0.,-1.,-0.));
#2010=DIRECTION('',(-1.,0.,0.));
#2020=AXIS2_PLACEMENT_3D('',#1990,#2000,#2010);
#2030=PLANE('',#2020);
#2040=CARTESIAN_POINT('',(0.,25.,0.));
#2050=DIRECTION('',(0.,1.,0.));
#2060=DIRECTION('',(1.,0.,0.));
#2070=AXIS2_PLACEMENT_3D('',#2040,#2050,#2060);
#2080=CIRCLE('',#2070,4.5);
#2090=CARTESIAN_POINT('',(4.5,25.,-5.51091059616309E-16));
#2100=VERTEX_POINT('',#2090);
#2110=CARTESIAN_POINT('',(-4.5,25.,0.));
#2120=VERTEX_POINT('',#2110);
#2130=EDGE_CURVE('',#2100,#2120,#2080,.T.);
#2140=ORIENTED_EDGE('',*,*,#2130,.T.);
#2150=EDGE_CURVE('',#2120,#2100,#2080,.T.);
#2160=ORIENTED_EDGE('',*,*,#2150,.T.);
#2170=EDGE_LOOP('',(#2160,#2140));
#2180=FACE_OUTER_BOUND('',#2170,.T.);
#2190=ADVANCED_FACE('',(#2180),#2030,.F.);
#2200=CARTESIAN_POINT('',(0.,24.5,0.));
#2210=DIRECTION('',(0.,-1.,0.));
#2220=DIRECTION('',(-1.,0.,0.));
#2230=AXIS2_PLACEMENT_3D('',#2200,#2210,#2220);
#2240=CONICAL_SURFACE('',#2230,5.,0.785398163397448);
#2250=CARTESIAN_POINT('',(5.,24.5,-6.12323399573677E-16));
#2260=DIRECTION('',(0.707106781186548,-0.707106781186548,
-8.65956056235493E-17));
#2270=VECTOR('',#2260,7.07106781186547);
#2280=LINE('',#2250,#2270);
#2290=EDGE_CURVE('',#2100,#1760,#2280,.T.);
#2300=ORIENTED_EDGE('',*,*,#2290,.F.);
#2310=EDGE_CURVE('',#1850,#1760,#1830,.T.);
#2320=ORIENTED_EDGE('',*,*,#2310,.T.);
#2330=CARTESIAN_POINT('',(-5.,24.5,0.));
#2340=DIRECTION('',(-0.707106781186548,-0.707106781186548,0.));
#2350=VECTOR('',#2340,7.07106781186547);
#2360=LINE('',#2330,#2350);
#2370=EDGE_CURVE('',#2120,#1850,#2360,.T.);
#2380=ORIENTED_EDGE('',*,*,#2370,.T.);
#2390=ORIENTED_EDGE('',*,*,#2150,.F.);
#2400=EDGE_LOOP('',(#2390,#2380,#2320,#2300));
#2410=FACE_OUTER_BOUND('',#2400,.T.);
#2420=ADVANCED_FACE('',(#2410),#2240,.T.);
#2430=CARTESIAN_POINT('',(0.,3.5,0.));
#2440=DIRECTION('',(0.,-1.,0.));
#2450=DIRECTION('',(1.,0.,0.));
#2460=AXIS2_PLACEMENT_3D('',#2430,#2440,#2450);
#2470=CYLINDRICAL_SURFACE('',#2460,1.65);
#2480=CARTESIAN_POINT('',(-1.65,3.5,2.02066721859313E-16));
#2490=DIRECTION('',(0.,-1.,0.));
#2500=VECTOR('',#2490,1.);
#2510=LINE('',#2480,#2500);
#2520=CARTESIAN_POINT('',(-1.65,7.,2.02066721859313E-16));
#2530=VERTEX_POINT('',#2520);
#2540=CARTESIAN_POINT('',(-1.65,0.850000000000001,0.));
#2550=VERTEX_POINT('',#2540);
#2560=EDGE_CURVE('',#2530,#2550,#2510,.T.);
#2570=ORIENTED_EDGE('',*,*,#2560,.F.);
#2580=CARTESIAN_POINT('',(0.,0.850000000000001,0.));
#2590=DIRECTION('',(0.,-1.,0.));
#2600=DIRECTION('',(-1.,0.,0.));
#2610=AXIS2_PLACEMENT_3D('',#2580,#2590,#2600);
#2620=CIRCLE('',#2610,1.65);
#2630=CARTESIAN_POINT('',(1.65,0.850000000000001,-2.02066721859313E-16))
;
#2640=VERTEX_POINT('',#2630);
#2650=EDGE_CURVE('',#2640,#2550,#2620,.T.);
#2660=ORIENTED_EDGE('',*,*,#2650,.T.);
#2670=CARTESIAN_POINT('',(1.65,3.5,4.04133443718627E-16));
#2680=DIRECTION('',(0.,-1.,0.));
#2690=VECTOR('',#2680,1.);
#2700=LINE('',#2670,#2690);
#2710=CARTESIAN_POINT('',(1.65,7.,4.04133443718627E-16));
#2720=VERTEX_POINT('',#2710);
#2730=EDGE_CURVE('',#2720,#2640,#2700,.T.);
#2740=ORIENTED_EDGE('',*,*,#2730,.T.);
#2750=CARTESIAN_POINT('',(0.,7.,0.));
#2760=DIRECTION('',(0.,1.,0.));
#2770=DIRECTION('',(1.,0.,0.));
#2780=AXIS2_PLACEMENT_3D('',#2750,#2760,#2770);
#2790=CIRCLE('',#2780,1.65);
#2800=EDGE_CURVE('',#2530,#2720,#2790,.T.);
#2810=ORIENTED_EDGE('',*,*,#2800,.T.);
#2820=EDGE_LOOP('',(#2810,#2740,#2660,#2570));
#2830=FACE_OUTER_BOUND('',#2820,.T.);
#2840=ADVANCED_FACE('',(#2830),#2470,.F.);
#2850=COLOUR_RGB('',1.,0.,0.);
#2860=FILL_AREA_STYLE_COLOUR('',#2850);
#2870=FILL_AREA_STYLE('',(#2860));
#2880=SURFACE_STYLE_FILL_AREA(#2870);
#2890=SURFACE_SIDE_STYLE('',(#2880));
#2900=SURFACE_STYLE_USAGE(.BOTH.,#2890);
#2910=PRESENTATION_STYLE_ASSIGNMENT((#2900));
#2920=CARTESIAN_POINT('',(1.6425,7.,0.));
#2930=DIRECTION('',(0.,-1.,0.));
#2940=DIRECTION('',(1.,0.,0.));
#2950=AXIS2_PLACEMENT_3D('',#2920,#2930,#2940);
#2960=PLANE('',#2950);
#2970=CARTESIAN_POINT('',(0.,7.,0.));
#2980=DIRECTION('',(1.,0.,0.));
#2990=VECTOR('',#2980,1.);
#3000=LINE('',#2970,#2990);
#3010=CARTESIAN_POINT('',(1.635,7.,0.));
#3020=VERTEX_POINT('',#3010);
#3030=EDGE_CURVE('',#3020,#2720,#3000,.T.);
#3040=ORIENTED_EDGE('',*,*,#3030,.T.);
#3050=CARTESIAN_POINT('',(0.,7.,0.));
#3060=DIRECTION('',(0.,1.,0.));
#3070=DIRECTION('',(1.,0.,0.));
#3080=AXIS2_PLACEMENT_3D('',#3050,#3060,#3070);
#3090=CIRCLE('',#3080,1.635);
#3100=CARTESIAN_POINT('',(-1.635,7.,0.));
#3110=VERTEX_POINT('',#3100);
#3120=EDGE_CURVE('',#3110,#3020,#3090,.T.);
#3130=ORIENTED_EDGE('',*,*,#3120,.T.);
#3140=EDGE_CURVE('',#2530,#3110,#3000,.T.);
#3150=ORIENTED_EDGE('',*,*,#3140,.T.);
#3160=ORIENTED_EDGE('',*,*,#2800,.F.);
#3170=EDGE_LOOP('',(#3160,#3150,#3130,#3040));
#3180=FACE_OUTER_BOUND('',#3170,.T.);
#3190=ADVANCED_FACE('',(#3180),#2960,.T.);
#3200=CARTESIAN_POINT('',(0.,8.5,0.));
#3210=DIRECTION('',(0.,-1.,0.));
#3220=DIRECTION('',(1.,0.,0.));
#3230=AXIS2_PLACEMENT_3D('',#3200,#3210,#3220);
#3240=CYLINDRICAL_SURFACE('',#3230,1.635);
#3250=CARTESIAN_POINT('',(1.635,8.5,0.));
#3260=DIRECTION('',(0.,-1.,0.));
#3270=VECTOR('',#3260,1.);
#3280=LINE('',#3250,#3270);
#3290=CARTESIAN_POINT('',(1.635,10.,0.));
#3300=VERTEX_POINT('',#3290);
#3310=EDGE_CURVE('',#3300,#3020,#3280,.T.);
#3320=ORIENTED_EDGE('',*,*,#3310,.T.);
#3330=CARTESIAN_POINT('',(0.,10.,0.));
#3340=DIRECTION('',(0.,1.,0.));
#3350=DIRECTION('',(1.,0.,0.));
#3360=AXIS2_PLACEMENT_3D('',#3330,#3340,#3350);
#3370=CIRCLE('',#3360,1.635);
#3380=CARTESIAN_POINT('',(-1.635,10.,2.00229751660592E-16));
#3390=VERTEX_POINT('',#3380);
#3400=EDGE_CURVE('',#3390,#3300,#3370,.T.);
#3410=ORIENTED_EDGE('',*,*,#3400,.T.);
#3420=CARTESIAN_POINT('',(-1.635,8.5,2.00229751660592E-16));
#3430=DIRECTION('',(0.,-1.,0.));
#3440=VECTOR('',#3430,1.);
#3450=LINE('',#3420,#3440);
#3460=EDGE_CURVE('',#3390,#3110,#3450,.T.);
#3470=ORIENTED_EDGE('',*,*,#3460,.F.);
#3480=ORIENTED_EDGE('',*,*,#3120,.F.);
#3490=EDGE_LOOP('',(#3480,#3470,#3410,#3320));
#3500=FACE_OUTER_BOUND('',#3490,.T.);
#3510=ADVANCED_FACE('',(#3500),#3240,.F.);
#3520=CARTESIAN_POINT('',(0.,10.,0.));
#3530=DIRECTION('',(0.,-1.,0.));
#3540=DIRECTION('',(1.,0.,0.));
#3550=AXIS2_PLACEMENT_3D('',#3520,#3530,#3540);
#3560=CONICAL_SURFACE('',#3550,1.635,1.02974425867666);
#3570=CARTESIAN_POINT('',(1.635,10.,0.));
#3580=DIRECTION('',(0.857167300702113,-0.515038074910054,0.));
#3590=VECTOR('',#3580,1.90744560444706);
#3600=LINE('',#3570,#3590);
#3610=CARTESIAN_POINT('',(-2.22044604925031E-16,10.9824071121101,
2.46519032881566E-32));
#3620=VERTEX_POINT('',#3610);
#3630=EDGE_CURVE('',#3620,#3300,#3600,.T.);
#3640=ORIENTED_EDGE('',*,*,#3630,.T.);
#3650=CARTESIAN_POINT('',(-1.635,10.,2.00229751660592E-16));
#3660=DIRECTION('',(-0.857167300702113,-0.515038074910054,
1.04972719113862E-16));
#3670=VECTOR('',#3660,1.90744560444706);
#3680=LINE('',#3650,#3670);
#3690=EDGE_CURVE('',#3620,#3390,#3680,.T.);
#3700=ORIENTED_EDGE('',*,*,#3690,.F.);
#3710=ORIENTED_EDGE('',*,*,#3400,.F.);
#3720=EDGE_LOOP('',(#3710,#3700,#3640));
#3730=FACE_OUTER_BOUND('',#3720,.T.);
#3740=ADVANCED_FACE('',(#3730),#3560,.F.);
#3750=CARTESIAN_POINT('',(0.,0.850000000000001,0.));
#3760=DIRECTION('',(0.,-1.,0.));
#3770=DIRECTION('',(-1.,0.,0.));
#3780=AXIS2_PLACEMENT_3D('',#3750,#3760,#3770);
#3790=CONICAL_SURFACE('',#3780,1.65,0.785398163397448);
#3800=CARTESIAN_POINT('',(1.65,0.850000000000001,-2.02066721859313E-16))
;
#3810=DIRECTION('',(0.707106781186548,-0.707106781186548,
-8.65956056235493E-17));
#3820=VECTOR('',#3810,2.33345237791561);
#3830=LINE('',#3800,#3820);
#3840=EDGE_CURVE('',#2640,#290,#3830,.T.);
#3850=ORIENTED_EDGE('',*,*,#3840,.T.);
#3860=ORIENTED_EDGE('',*,*,#2650,.F.);
#3870=CARTESIAN_POINT('',(-1.65,0.850000000000001,0.));
#3880=DIRECTION('',(-0.707106781186548,-0.707106781186548,0.));
#3890=VECTOR('',#3880,2.33345237791561);
#3900=LINE('',#3870,#3890);
#3910=EDGE_CURVE('',#2550,#270,#3900,.T.);
#3920=ORIENTED_EDGE('',*,*,#3910,.F.);
#3930=ORIENTED_EDGE('',*,*,#320,.T.);
#3940=EDGE_LOOP('',(#3930,#3920,#3860,#3850));
#3950=FACE_OUTER_BOUND('',#3940,.T.);
#3960=ADVANCED_FACE('',(#3950),#3790,.F.);
#3970=CARTESIAN_POINT('',(0.,8.5,0.));
#3980=DIRECTION('',(0.,-1.,0.));
#3990=DIRECTION('',(1.,0.,0.));
#4000=AXIS2_PLACEMENT_3D('',#3970,#3980,#3990);
#4010=CYLINDRICAL_SURFACE('',#4000,1.635);
#4020=CARTESIAN_POINT('',(0.,7.,0.));
#4030=DIRECTION('',(0.,-1.,0.));
#4040=DIRECTION('',(1.,0.,0.));
#4050=AXIS2_PLACEMENT_3D('',#4020,#4030,#4040);
#4060=CIRCLE('',#4050,1.635);
#4070=EDGE_CURVE('',#3110,#3020,#4060,.T.);
#4080=ORIENTED_EDGE('',*,*,#4070,.T.);
#4090=ORIENTED_EDGE('',*,*,#3460,.T.);
#4100=CARTESIAN_POINT('',(0.,10.,0.));
#4110=DIRECTION('',(0.,-1.,0.));
#4120=DIRECTION('',(1.,0.,0.));
#4130=AXIS2_PLACEMENT_3D('',#4100,#4110,#4120);
#4140=CIRCLE('',#4130,1.635);
#4150=EDGE_CURVE('',#3390,#3300,#4140,.T.);
#4160=ORIENTED_EDGE('',*,*,#4150,.F.);
#4170=ORIENTED_EDGE('',*,*,#3310,.F.);
#4180=EDGE_LOOP('',(#4170,#4160,#4090,#4080));
#4190=FACE_OUTER_BOUND('',#4180,.T.);
#4200=ADVANCED_FACE('',(#4190),#4010,.F.);
#4210=CARTESIAN_POINT('',(0.,3.5,0.));
#4220=DIRECTION('',(0.,-1.,0.));
#4230=DIRECTION('',(1.,0.,0.));
#4240=AXIS2_PLACEMENT_3D('',#4210,#4220,#4230);
#4250=CYLINDRICAL_SURFACE('',#4240,1.65);
#4260=CARTESIAN_POINT('',(0.,7.,0.));
#4270=DIRECTION('',(0.,-1.,0.));
#4280=DIRECTION('',(1.,0.,0.));
#4290=AXIS2_PLACEMENT_3D('',#4260,#4270,#4280);
#4300=CIRCLE('',#4290,1.65);
#4310=EDGE_CURVE('',#2530,#2720,#4300,.T.);
#4320=ORIENTED_EDGE('',*,*,#4310,.F.);
#4330=ORIENTED_EDGE('',*,*,#2730,.F.);
#4340=CARTESIAN_POINT('',(0.,0.850000000000001,0.));
#4350=DIRECTION('',(0.,1.,0.));
#4360=DIRECTION('',(-1.,0.,0.));
#4370=AXIS2_PLACEMENT_3D('',#4340,#4350,#4360);
#4380=CIRCLE('',#4370,1.65);
#4390=EDGE_CURVE('',#2640,#2550,#4380,.T.);
#4400=ORIENTED_EDGE('',*,*,#4390,.F.);
#4410=ORIENTED_EDGE('',*,*,#2560,.T.);
#4420=EDGE_LOOP('',(#4410,#4400,#4330,#4320));
#4430=FACE_OUTER_BOUND('',#4420,.T.);
#4440=ADVANCED_FACE('',(#4430),#4250,.F.);
#4450=COLOUR_RGB('',1.,0.,0.);
#4460=FILL_AREA_STYLE_COLOUR('',#4450);
#4470=FILL_AREA_STYLE('',(#4460));
#4480=SURFACE_STYLE_FILL_AREA(#4470);
#4490=SURFACE_SIDE_STYLE('',(#4480));
#4500=SURFACE_STYLE_USAGE(.BOTH.,#4490);
#4510=PRESENTATION_STYLE_ASSIGNMENT((#4500));
#4520=CARTESIAN_POINT('',(1.6425,7.,0.));
#4530=DIRECTION('',(-0.,1.,0.));
#4540=DIRECTION('',(1.,0.,0.));
#4550=AXIS2_PLACEMENT_3D('',#4520,#4530,#4540);
#4560=PLANE('',#4550);
#4570=ORIENTED_EDGE('',*,*,#4310,.T.);
#4580=ORIENTED_EDGE('',*,*,#3140,.F.);
#4590=ORIENTED_EDGE('',*,*,#4070,.F.);
#4600=ORIENTED_EDGE('',*,*,#3030,.F.);
#4610=EDGE_LOOP('',(#4600,#4590,#4580,#4570));
#4620=FACE_OUTER_BOUND('',#4610,.T.);
#4630=ADVANCED_FACE('',(#4620),#4560,.F.);
#4640=CARTESIAN_POINT('',(0.,10.,0.));
#4650=DIRECTION('',(0.,-1.,0.));
#4660=DIRECTION('',(1.,0.,0.));
#4670=AXIS2_PLACEMENT_3D('',#4640,#4650,#4660);
#4680=CONICAL_SURFACE('',#4670,1.635,1.02974425867666);
#4690=ORIENTED_EDGE('',*,*,#4150,.T.);
#4700=ORIENTED_EDGE('',*,*,#3690,.T.);
#4710=ORIENTED_EDGE('',*,*,#3630,.F.);
#4720=EDGE_LOOP('',(#4710,#4700,#4690));
#4730=FACE_OUTER_BOUND('',#4720,.T.);
#4740=ADVANCED_FACE('',(#4730),#4680,.F.);
#4750=CARTESIAN_POINT('',(0.,19.5,0.));
#4760=DIRECTION('',(0.,1.,0.));
#4770=DIRECTION('',(1.,0.,0.));
#4780=AXIS2_PLACEMENT_3D('',#4750,#4760,#4770);
#4790=CONICAL_SURFACE('',#4780,5.,0.78539816339745);
#4800=ORIENTED_EDGE('',*,*,#1440,.T.);
#4810=ORIENTED_EDGE('',*,*,#1210,.T.);
#4820=ORIENTED_EDGE('',*,*,#1590,.F.);
#4830=ORIENTED_EDGE('',*,*,#1940,.F.);
#4840=EDGE_LOOP('',(#4830,#4820,#4810,#4800));
#4850=FACE_OUTER_BOUND('',#4840,.T.);
#4860=ADVANCED_FACE('',(#4850),#4790,.T.);
#4870=CARTESIAN_POINT('',(0.,22.25,0.));
#4880=DIRECTION('',(0.,-1.,0.));
#4890=DIRECTION('',(-1.,0.,0.));
#4900=AXIS2_PLACEMENT_3D('',#4870,#4880,#4890);
#4910=CYLINDRICAL_SURFACE('',#4900,5.);
#4920=ORIENTED_EDGE('',*,*,#1770,.F.);
#4930=ORIENTED_EDGE('',*,*,#1530,.T.);
#4940=ORIENTED_EDGE('',*,*,#1920,.T.);
#4950=ORIENTED_EDGE('',*,*,#2310,.F.);
#4960=EDGE_LOOP('',(#4950,#4940,#4930,#4920));
#4970=FACE_OUTER_BOUND('',#4960,.T.);
#4980=ADVANCED_FACE('',(#4970),#4910,.T.);
#4990=CARTESIAN_POINT('',(0.,24.5,0.));
#5000=DIRECTION('',(0.,-1.,0.));
#5010=DIRECTION('',(-1.,0.,0.));
#5020=AXIS2_PLACEMENT_3D('',#4990,#5000,#5010);
#5030=CONICAL_SURFACE('',#5020,5.,0.785398163397448);
#5040=ORIENTED_EDGE('',*,*,#1860,.T.);
#5050=ORIENTED_EDGE('',*,*,#2290,.T.);
#5060=ORIENTED_EDGE('',*,*,#2130,.F.);
#5070=ORIENTED_EDGE('',*,*,#2370,.F.);
#5080=EDGE_LOOP('',(#5070,#5060,#5050,#5040));
#5090=FACE_OUTER_BOUND('',#5080,.T.);
#5100=ADVANCED_FACE('',(#5090),#5030,.T.);
#5110=CARTESIAN_POINT('',(0.,16.5,0.));
#5120=DIRECTION('',(0.,-1.,0.));
#5130=DIRECTION('',(1.,0.,0.));
#5140=AXIS2_PLACEMENT_3D('',#5110,#5120,#5130);
#5150=CONICAL_SURFACE('',#5140,5.,0.785398163397449);
#5160=EDGE_CURVE('',#470,#560,#540,.T.);
#5170=ORIENTED_EDGE('',*,*,#5160,.F.);
#5180=ORIENTED_EDGE('',*,*,#800,.T.);
#5190=EDGE_CURVE('',#880,#790,#950,.T.);
#5200=ORIENTED_EDGE('',*,*,#5190,.T.);
#5210=ORIENTED_EDGE('',*,*,#890,.F.);
#5220=EDGE_LOOP('',(#5210,#5200,#5180,#5170));
#5230=FACE_OUTER_BOUND('',#5220,.T.);
#5240=ADVANCED_FACE('',(#5230),#5150,.T.);
#5250=CARTESIAN_POINT('',(0.,0.850000000000001,0.));
#5260=DIRECTION('',(0.,-1.,0.));
#5270=DIRECTION('',(-1.,0.,0.));
#5280=AXIS2_PLACEMENT_3D('',#5250,#5260,#5270);
#5290=CONICAL_SURFACE('',#5280,1.65,0.785398163397448);
#5300=ORIENTED_EDGE('',*,*,#4390,.T.);
#5310=ORIENTED_EDGE('',*,*,#3840,.F.);
#5320=ORIENTED_EDGE('',*,*,#300,.T.);
#5330=ORIENTED_EDGE('',*,*,#3910,.T.);
#5340=EDGE_LOOP('',(#5330,#5320,#5310,#5300));
#5350=FACE_OUTER_BOUND('',#5340,.T.);
#5360=ADVANCED_FACE('',(#5350),#5290,.F.);
#5370=CARTESIAN_POINT('',(0.,17.91798210994,0.));
#5380=DIRECTION('',(0.,-1.,0.));
#5390=DIRECTION('',(-1.,0.,0.));
#5400=AXIS2_PLACEMENT_3D('',#5370,#5380,#5390);
#5410=CYLINDRICAL_SURFACE('',#5400,4.25);
#5420=ORIENTED_EDGE('',*,*,#1120,.F.);
#5430=ORIENTED_EDGE('',*,*,#5190,.F.);
#5440=ORIENTED_EDGE('',*,*,#1270,.T.);
#5450=ORIENTED_EDGE('',*,*,#1610,.F.);
#5460=EDGE_LOOP('',(#5450,#5440,#5430,#5420));
#5470=FACE_OUTER_BOUND('',#5460,.T.);
#5480=ADVANCED_FACE('',(#5470),#5410,.T.);
#5490=CARTESIAN_POINT('',(0.,8.25,0.));
#5500=DIRECTION('',(0.,-1.,0.));
#5510=DIRECTION('',(-1.,0.,0.));
#5520=AXIS2_PLACEMENT_3D('',#5490,#5500,#5510);
#5530=CYLINDRICAL_SURFACE('',#5520,5.);
#5540=ORIENTED_EDGE('',*,*,#5160,.T.);
#5550=ORIENTED_EDGE('',*,*,#480,.F.);
#5560=ORIENTED_EDGE('',*,*,#150,.T.);
#5570=ORIENTED_EDGE('',*,*,#630,.T.);
#5580=EDGE_LOOP('',(#5570,#5560,#5550,#5540));
#5590=FACE_OUTER_BOUND('',#5580,.T.);
#5600=ADVANCED_FACE('',(#5590),#5530,.T.);
#5610=CLOSED_SHELL('',(#360,#680,#1000,#1320,#1650,#1980,#2190,#2420,
#2840,#3190,#3510,#3740,#3960,#4200,#4440,#4630,#4740,#4860,#4980,#5100,
#5240,#5360,#5480,#5600));
#5620=MANIFOLD_SOLID_BREP('',#5610);
#5630=CARTESIAN_POINT('',(0.,0.,0.));
#5640=DIRECTION('',(0.,0.,1.));
#5650=DIRECTION('',(1.,0.,0.));
#5660=AXIS2_PLACEMENT_3D('',#5630,#5640,#5650);
#5670=APPLICATION_CONTEXT(' ');
#5680=APPLICATION_PROTOCOL_DEFINITION(' ','automotive_design',1998,#5670
);
#5690=PRODUCT_CONTEXT('',#5670,'mechanical');
#5700=PRODUCT_DEFINITION_CONTEXT('part definition',#5670,'design');
#5710=PRODUCT('NI-9950','NI-9950','',(#5690));
#5720=PRODUCT_RELATED_PRODUCT_CATEGORY('part',' ',(#5710));
#5730=PRODUCT_DEFINITION_FORMATION_WITH_SPECIFIED_SOURCE('','',#5710,
.BOUGHT.);
#5740=PRODUCT_DEFINITION('',' ',#5730,#5700);
#5750=PRODUCT_DEFINITION_SHAPE('','',#5740);
#5760=DIMENSIONAL_EXPONENTS(1.,0.,0.,0.,0.,0.,0.);
#5770=DIMENSIONAL_EXPONENTS(0.,0.,0.,0.,0.,0.,0.);
#5780=DIMENSIONAL_EXPONENTS(0.,0.,0.,0.,0.,0.,0.);
#5790=(LENGTH_UNIT() NAMED_UNIT(*) SI_UNIT(.MILLI.,.METRE.));
#5800=(NAMED_UNIT(*) PLANE_ANGLE_UNIT() SI_UNIT($,.RADIAN.));
#5810=(NAMED_UNIT(*) SI_UNIT($,.STERADIAN.) SOLID_ANGLE_UNIT());
#5820=(GEOMETRIC_REPRESENTATION_CONTEXT(3) 
GLOBAL_UNCERTAINTY_ASSIGNED_CONTEXT((#5830)) 
GLOBAL_UNIT_ASSIGNED_CONTEXT((#5790,#5800,#5810)) REPRESENTATION_CONTEXT
('',''));
#5830=UNCERTAINTY_MEASURE_WITH_UNIT(LENGTH_MEASURE(1.E-6),#5790,
'distance_accuracy_value','maximum gap value');
#5840=ADVANCED_BREP_SHAPE_REPRESENTATION('',(#5660,#5620),#5820);
#5850=SHAPE_DEFINITION_REPRESENTATION(#5750,#5840);
#5860=COLOUR_RGB('',0.600000023841858,0.600000023841858,
0.600000023841858);
#5870=FILL_AREA_STYLE_COLOUR('',#5860);
#5880=FILL_AREA_STYLE('',(#5870));
#5890=SURFACE_STYLE_FILL_AREA(#5880);
#5900=SURFACE_SIDE_STYLE('',(#5890));
#5910=SURFACE_STYLE_USAGE(.BOTH.,#5900);
#5920=PRESENTATION_STYLE_ASSIGNMENT((#5910));
#5930=STYLED_ITEM('',(#5920),#5620);
#5940=OVER_RIDING_STYLED_ITEM('',(#2910),#2840,#5930);
#5950=OVER_RIDING_STYLED_ITEM('',(#4510),#4440,#5930);
#5960=DRAUGHTING_MODEL('',(#5930,#5940,#5950),#5820);
ENDSEC;
END-ISO-10303-21;
