ISO-10303-21;
HEADER;
FILE_DESCRIPTION(('Creo Elements/Direct Modeling STEP Export'),'2;1');
FILE_NAME('2279-18.stp','2022-05-04T10:26:30',(''),(''),
'Creo Elements/Direct Modeling STEP processor for AP214 (Solid Model)',
'Creo Elements/Direct Modeling 20.0  12-Nov-2016 (C) Parametric Technolo
gy GmbH','');
FILE_SCHEMA(('AUTOMOTIVE_DESIGN { 1 0 10303 214 1 1 1 1 }'));
ENDSEC;
DATA;
#10=CARTESIAN_POINT('',(3.125,0.,0.));
#20=DIRECTION('',(-0.,-1.,-0.));
#30=DIRECTION('',(-1.,0.,0.));
#40=AXIS2_PLACEMENT_3D('',#10,#20,#30);
#50=PLANE('',#40);
#60=CARTESIAN_POINT('',(0.,0.,0.));
#70=DIRECTION('',(0.,-1.,0.));
#80=DIRECTION('',(-1.,0.,0.));
#90=AXIS2_PLACEMENT_3D('',#60,#70,#80);
#100=CIRCLE('',#90,2.5);
#110=CARTESIAN_POINT('',(2.5,0.,-3.06161699786838E-16));
#120=VERTEX_POINT('',#110);
#130=CARTESIAN_POINT('',(-2.5,-2.22044604925031E-16,0.));
#140=VERTEX_POINT('',#130);
#150=EDGE_CURVE('',#120,#140,#100,.T.);
#160=ORIENTED_EDGE('',*,*,#150,.F.);
#170=EDGE_CURVE('',#140,#120,#100,.T.);
#180=ORIENTED_EDGE('',*,*,#170,.F.);
#190=EDGE_LOOP('',(#180,#160));
#200=FACE_BOUND('',#190,.T.);
#210=CARTESIAN_POINT('',(0.,0.,0.));
#220=DIRECTION('',(0.,-1.,0.));
#230=DIRECTION('',(-1.,0.,0.));
#240=AXIS2_PLACEMENT_3D('',#210,#220,#230);
#250=CIRCLE('',#240,5.75);
#260=CARTESIAN_POINT('',(5.75,0.,0.));
#270=VERTEX_POINT('',#260);
#280=CARTESIAN_POINT('',(-5.75,-1.29354281254585E-31,
-7.04171909509728E-16));
#290=VERTEX_POINT('',#280);
#300=EDGE_CURVE('',#270,#290,#250,.T.);
#310=ORIENTED_EDGE('',*,*,#300,.T.);
#320=EDGE_CURVE('',#290,#270,#250,.T.);
#330=ORIENTED_EDGE('',*,*,#320,.T.);
#340=EDGE_LOOP('',(#330,#310));
#350=FACE_OUTER_BOUND('',#340,.T.);
#360=ADVANCED_FACE('',(#200,#350),#50,.T.);
#370=CARTESIAN_POINT('',(0.,5.5,0.));
#380=DIRECTION('',(0.,-1.,0.));
#390=DIRECTION('',(-1.,0.,0.));
#400=AXIS2_PLACEMENT_3D('',#370,#380,#390);
#410=CYLINDRICAL_SURFACE('',#400,6.25);
#420=CARTESIAN_POINT('',(-6.25,5.5,0.));
#430=DIRECTION('',(0.,-1.,0.));
#440=VECTOR('',#430,1.);
#450=LINE('',#420,#440);
#460=CARTESIAN_POINT('',(-6.25,11.,0.));
#470=VERTEX_POINT('',#460);
#480=CARTESIAN_POINT('',(-6.25,0.5,0.));
#490=VERTEX_POINT('',#480);
#500=EDGE_CURVE('',#470,#490,#450,.T.);
#510=ORIENTED_EDGE('',*,*,#500,.F.);
#520=CARTESIAN_POINT('',(0.,0.5,0.));
#530=DIRECTION('',(0.,-1.,0.));
#540=DIRECTION('',(-1.,0.,0.));
#550=AXIS2_PLACEMENT_3D('',#520,#530,#540);
#560=CIRCLE('',#550,6.25);
#570=CARTESIAN_POINT('',(6.25,0.5,-7.65404249467096E-16));
#580=VERTEX_POINT('',#570);
#590=EDGE_CURVE('',#490,#580,#560,.T.);
#600=ORIENTED_EDGE('',*,*,#590,.F.);
#610=CARTESIAN_POINT('',(6.25,5.5,-7.65404249467096E-16));
#620=DIRECTION('',(0.,-1.,0.));
#630=VECTOR('',#620,1.);
#640=LINE('',#610,#630);
#650=CARTESIAN_POINT('',(6.25,11.,-7.65404249467096E-16));
#660=VERTEX_POINT('',#650);
#670=EDGE_CURVE('',#660,#580,#640,.T.);
#680=ORIENTED_EDGE('',*,*,#670,.T.);
#690=CARTESIAN_POINT('',(0.,11.,0.));
#700=DIRECTION('',(0.,-1.,0.));
#710=DIRECTION('',(1.,0.,0.));
#720=AXIS2_PLACEMENT_3D('',#690,#700,#710);
#730=CIRCLE('',#720,6.25);
#740=EDGE_CURVE('',#470,#660,#730,.T.);
#750=ORIENTED_EDGE('',*,*,#740,.T.);
#760=EDGE_LOOP('',(#750,#680,#600,#510));
#770=FACE_OUTER_BOUND('',#760,.T.);
#780=ADVANCED_FACE('',(#770),#410,.T.);
#790=CARTESIAN_POINT('',(7.625,11.,0.));
#800=DIRECTION('',(-0.,-1.,-0.));
#810=DIRECTION('',(-1.,0.,0.));
#820=AXIS2_PLACEMENT_3D('',#790,#800,#810);
#830=PLANE('',#820);
#840=EDGE_CURVE('',#660,#470,#730,.T.);
#850=ORIENTED_EDGE('',*,*,#840,.F.);
#860=ORIENTED_EDGE('',*,*,#740,.F.);
#870=EDGE_LOOP('',(#860,#850));
#880=FACE_BOUND('',#870,.T.);
#890=CARTESIAN_POINT('',(0.,11.,0.));
#900=DIRECTION('',(0.,-1.,0.));
#910=DIRECTION('',(-1.,0.,0.));
#920=AXIS2_PLACEMENT_3D('',#890,#900,#910);
#930=CIRCLE('',#920,8.7);
#940=CARTESIAN_POINT('',(8.7,11.,0.));
#950=VERTEX_POINT('',#940);
#960=CARTESIAN_POINT('',(-8.7,11.,-1.0654427152582E-15));
#970=VERTEX_POINT('',#960);
#980=EDGE_CURVE('',#950,#970,#930,.T.);
#990=ORIENTED_EDGE('',*,*,#980,.T.);
#1000=EDGE_CURVE('',#970,#950,#930,.T.);
#1010=ORIENTED_EDGE('',*,*,#1000,.T.);
#1020=EDGE_LOOP('',(#1010,#990));
#1030=FACE_OUTER_BOUND('',#1020,.T.);
#1040=ADVANCED_FACE('',(#880,#1030),#830,.T.);
#1050=CARTESIAN_POINT('',(0.,13.,0.));
#1060=DIRECTION('',(0.,-1.,0.));
#1070=DIRECTION('',(-1.,0.,0.));
#1080=AXIS2_PLACEMENT_3D('',#1050,#1060,#1070);
#1090=CYLINDRICAL_SURFACE('',#1080,9.);
#1100=CARTESIAN_POINT('',(-9.,13.,0.));
#1110=DIRECTION('',(0.,-1.,0.));
#1120=VECTOR('',#1110,1.);
#1130=LINE('',#1100,#1120);
#1140=CARTESIAN_POINT('',(-9.,14.7,0.));
#1150=VERTEX_POINT('',#1140);
#1160=CARTESIAN_POINT('',(-9.,11.3,0.));
#1170=VERTEX_POINT('',#1160);
#1180=EDGE_CURVE('',#1150,#1170,#1130,.T.);
#1190=ORIENTED_EDGE('',*,*,#1180,.F.);
#1200=CARTESIAN_POINT('',(0.,11.3,0.));
#1210=DIRECTION('',(0.,-1.,0.));
#1220=DIRECTION('',(-1.,0.,0.));
#1230=AXIS2_PLACEMENT_3D('',#1200,#1210,#1220);
#1240=CIRCLE('',#1230,9.);
#1250=CARTESIAN_POINT('',(9.,11.3,-1.10218211923262E-15));
#1260=VERTEX_POINT('',#1250);
#1270=EDGE_CURVE('',#1170,#1260,#1240,.T.);
#1280=ORIENTED_EDGE('',*,*,#1270,.F.);
#1290=CARTESIAN_POINT('',(9.,13.,-1.10218211923262E-15));
#1300=DIRECTION('',(0.,-1.,0.));
#1310=VECTOR('',#1300,1.);
#1320=LINE('',#1290,#1310);
#1330=CARTESIAN_POINT('',(9.,14.7,-1.10218211923262E-15));
#1340=VERTEX_POINT('',#1330);
#1350=EDGE_CURVE('',#1340,#1260,#1320,.T.);
#1360=ORIENTED_EDGE('',*,*,#1350,.T.);
#1370=CARTESIAN_POINT('',(0.,14.7,0.));
#1380=DIRECTION('',(0.,-1.,0.));
#1390=DIRECTION('',(-1.,0.,0.));
#1400=AXIS2_PLACEMENT_3D('',#1370,#1380,#1390);
#1410=CIRCLE('',#1400,9.);
#1420=EDGE_CURVE('',#1150,#1340,#1410,.T.);
#1430=ORIENTED_EDGE('',*,*,#1420,.T.);
#1440=EDGE_LOOP('',(#1430,#1360,#1280,#1190));
#1450=FACE_OUTER_BOUND('',#1440,.T.);
#1460=ADVANCED_FACE('',(#1450),#1090,.T.);
#1470=CARTESIAN_POINT('',(4.5,15.,0.));
#1480=DIRECTION('',(-0.,-1.,-0.));
#1490=DIRECTION('',(-1.,0.,0.));
#1500=AXIS2_PLACEMENT_3D('',#1470,#1480,#1490);
#1510=PLANE('',#1500);
#1520=CARTESIAN_POINT('',(0.,15.,0.));
#1530=DIRECTION('',(0.,-1.,0.));
#1540=DIRECTION('',(-1.,0.,0.));
#1550=AXIS2_PLACEMENT_3D('',#1520,#1530,#1540);
#1560=CIRCLE('',#1550,8.7);
#1570=CARTESIAN_POINT('',(8.7,15.,-1.0654427152582E-15));
#1580=VERTEX_POINT('',#1570);
#1590=CARTESIAN_POINT('',(-8.7,15.,0.));
#1600=VERTEX_POINT('',#1590);
#1610=EDGE_CURVE('',#1580,#1600,#1560,.T.);
#1620=ORIENTED_EDGE('',*,*,#1610,.F.);
#1630=EDGE_CURVE('',#1600,#1580,#1560,.T.);
#1640=ORIENTED_EDGE('',*,*,#1630,.F.);
#1650=EDGE_LOOP('',(#1640,#1620));
#1660=FACE_OUTER_BOUND('',#1650,.T.);
#1670=ADVANCED_FACE('',(#1660),#1510,.F.);
#1680=CARTESIAN_POINT('',(0.,11.,0.));
#1690=DIRECTION('',(0.,1.,0.));
#1700=DIRECTION('',(1.,0.,0.));
#1710=AXIS2_PLACEMENT_3D('',#1680,#1690,#1700);
#1720=CONICAL_SURFACE('',#1710,8.7,0.785398163397448);
#1730=CARTESIAN_POINT('',(8.7,11.,0.));
#1740=DIRECTION('',(0.707106781186548,0.707106781186548,0.));
#1750=VECTOR('',#1740,12.3036579926459);
#1760=LINE('',#1730,#1750);
#1770=EDGE_CURVE('',#950,#1260,#1760,.T.);
#1780=ORIENTED_EDGE('',*,*,#1770,.F.);
#1790=ORIENTED_EDGE('',*,*,#1270,.T.);
#1800=CARTESIAN_POINT('',(-8.7,11.,-1.0654427152582E-15));
#1810=DIRECTION('',(-0.707106781186548,0.707106781186548,
-8.65956056235493E-17));
#1820=VECTOR('',#1810,12.3036579926459);
#1830=LINE('',#1800,#1820);
#1840=EDGE_CURVE('',#970,#1170,#1830,.T.);
#1850=ORIENTED_EDGE('',*,*,#1840,.T.);
#1860=ORIENTED_EDGE('',*,*,#1000,.F.);
#1870=EDGE_LOOP('',(#1860,#1850,#1790,#1780));
#1880=FACE_OUTER_BOUND('',#1870,.T.);
#1890=ADVANCED_FACE('',(#1880),#1720,.T.);
#1900=CARTESIAN_POINT('',(0.,14.7,0.));
#1910=DIRECTION('',(0.,-1.,0.));
#1920=DIRECTION('',(-1.,0.,0.));
#1930=AXIS2_PLACEMENT_3D('',#1900,#1910,#1920);
#1940=CONICAL_SURFACE('',#1930,9.,0.785398163397448);
#1950=CARTESIAN_POINT('',(9.,14.7,-1.10218211923262E-15));
#1960=DIRECTION('',(0.707106781186548,-0.707106781186548,
-8.65956056235493E-17));
#1970=VECTOR('',#1960,12.7279220613579);
#1980=LINE('',#1950,#1970);
#1990=EDGE_CURVE('',#1580,#1340,#1980,.T.);
#2000=ORIENTED_EDGE('',*,*,#1990,.T.);
#2010=ORIENTED_EDGE('',*,*,#1630,.T.);
#2020=CARTESIAN_POINT('',(-9.,14.7,0.));
#2030=DIRECTION('',(-0.707106781186548,-0.707106781186548,0.));
#2040=VECTOR('',#2030,12.7279220613579);
#2050=LINE('',#2020,#2040);
#2060=EDGE_CURVE('',#1600,#1150,#2050,.T.);
#2070=ORIENTED_EDGE('',*,*,#2060,.F.);
#2080=ORIENTED_EDGE('',*,*,#1420,.F.);
#2090=EDGE_LOOP('',(#2080,#2070,#2010,#2000));
#2100=FACE_OUTER_BOUND('',#2090,.T.);
#2110=ADVANCED_FACE('',(#2100),#1940,.T.);
#2120=CARTESIAN_POINT('',(0.,0.,0.));
#2130=DIRECTION('',(0.,1.,0.));
#2140=DIRECTION('',(1.,0.,0.));
#2150=AXIS2_PLACEMENT_3D('',#2120,#2130,#2140);
#2160=CONICAL_SURFACE('',#2150,5.75,0.785398163397448);
#2170=CARTESIAN_POINT('',(5.75,0.,0.));
#2180=DIRECTION('',(0.707106781186548,0.707106781186548,0.));
#2190=VECTOR('',#2180,8.1317279836453);
#2200=LINE('',#2170,#2190);
#2210=EDGE_CURVE('',#270,#580,#2200,.T.);
#2220=ORIENTED_EDGE('',*,*,#2210,.F.);
#2230=ORIENTED_EDGE('',*,*,#590,.T.);
#2240=CARTESIAN_POINT('',(-5.75,0.,-7.04171909509728E-16));
#2250=DIRECTION('',(-0.707106781186548,0.707106781186548,
-8.65956056235493E-17));
#2260=VECTOR('',#2250,8.1317279836453);
#2270=LINE('',#2240,#2260);
#2280=EDGE_CURVE('',#290,#490,#2270,.T.);
#2290=ORIENTED_EDGE('',*,*,#2280,.T.);
#2300=ORIENTED_EDGE('',*,*,#320,.F.);
#2310=EDGE_LOOP('',(#2300,#2290,#2230,#2220));
#2320=FACE_OUTER_BOUND('',#2310,.T.);
#2330=ADVANCED_FACE('',(#2320),#2160,.T.);
#2340=CARTESIAN_POINT('',(0.,3.5,0.));
#2350=DIRECTION('',(0.,-1.,0.));
#2360=DIRECTION('',(1.,0.,0.));
#2370=AXIS2_PLACEMENT_3D('',#2340,#2350,#2360);
#2380=CYLINDRICAL_SURFACE('',#2370,1.65);
#2390=CARTESIAN_POINT('',(-1.65,3.5,2.02066721859313E-16));
#2400=DIRECTION('',(0.,-1.,0.));
#2410=VECTOR('',#2400,1.);
#2420=LINE('',#2390,#2410);
#2430=CARTESIAN_POINT('',(-1.65,7.,2.02066721859313E-16));
#2440=VERTEX_POINT('',#2430);
#2450=CARTESIAN_POINT('',(-1.65,0.85,2.02066721859313E-16));
#2460=VERTEX_POINT('',#2450);
#2470=EDGE_CURVE('',#2440,#2460,#2420,.T.);
#2480=ORIENTED_EDGE('',*,*,#2470,.T.);
#2490=CARTESIAN_POINT('',(0.,7.,0.));
#2500=DIRECTION('',(0.,1.,0.));
#2510=DIRECTION('',(1.,0.,0.));
#2520=AXIS2_PLACEMENT_3D('',#2490,#2500,#2510);
#2530=CIRCLE('',#2520,1.65);
#2540=CARTESIAN_POINT('',(1.65,7.,0.));
#2550=VERTEX_POINT('',#2540);
#2560=EDGE_CURVE('',#2550,#2440,#2530,.T.);
#2570=ORIENTED_EDGE('',*,*,#2560,.T.);
#2580=CARTESIAN_POINT('',(1.65,3.5,0.));
#2590=DIRECTION('',(0.,-1.,0.));
#2600=VECTOR('',#2590,1.);
#2610=LINE('',#2580,#2600);
#2620=CARTESIAN_POINT('',(1.65,0.850000000000001,0.));
#2630=VERTEX_POINT('',#2620);
#2640=EDGE_CURVE('',#2550,#2630,#2610,.T.);
#2650=ORIENTED_EDGE('',*,*,#2640,.F.);
#2660=CARTESIAN_POINT('',(0.,0.85,0.));
#2670=DIRECTION('',(0.,-1.,0.));
#2680=DIRECTION('',(-1.,0.,0.));
#2690=AXIS2_PLACEMENT_3D('',#2660,#2670,#2680);
#2700=CIRCLE('',#2690,1.65);
#2710=EDGE_CURVE('',#2460,#2630,#2700,.T.);
#2720=ORIENTED_EDGE('',*,*,#2710,.T.);
#2730=EDGE_LOOP('',(#2720,#2650,#2570,#2480));
#2740=FACE_OUTER_BOUND('',#2730,.T.);
#2750=ADVANCED_FACE('M4_25753',(#2740),#2380,.F.);
#2760=COLOUR_RGB('',1.,0.,0.);
#2770=FILL_AREA_STYLE_COLOUR('',#2760);
#2780=FILL_AREA_STYLE('',(#2770));
#2790=SURFACE_STYLE_FILL_AREA(#2780);
#2800=SURFACE_SIDE_STYLE('',(#2790));
#2810=SURFACE_STYLE_USAGE(.BOTH.,#2800);
#2820=PRESENTATION_STYLE_ASSIGNMENT((#2810));
#2830=CARTESIAN_POINT('',(1.6425,7.,0.));
#2840=DIRECTION('',(0.,-1.,0.));
#2850=DIRECTION('',(1.,0.,0.));
#2860=AXIS2_PLACEMENT_3D('',#2830,#2840,#2850);
#2870=PLANE('',#2860);
#2880=ORIENTED_EDGE('',*,*,#2560,.F.);
#2890=EDGE_CURVE('',#2440,#2550,#2530,.T.);
#2900=ORIENTED_EDGE('',*,*,#2890,.F.);
#2910=EDGE_LOOP('',(#2900,#2880));
#2920=FACE_OUTER_BOUND('',#2910,.T.);
#2930=CARTESIAN_POINT('',(0.,7.,0.));
#2940=DIRECTION('',(0.,1.,0.));
#2950=DIRECTION('',(1.,0.,0.));
#2960=AXIS2_PLACEMENT_3D('',#2930,#2940,#2950);
#2970=CIRCLE('',#2960,1.635);
#2980=CARTESIAN_POINT('',(1.635,7.,0.));
#2990=VERTEX_POINT('',#2980);
#3000=CARTESIAN_POINT('',(-1.635,7.,2.00229751660592E-16));
#3010=VERTEX_POINT('',#3000);
#3020=EDGE_CURVE('',#2990,#3010,#2970,.T.);
#3030=ORIENTED_EDGE('',*,*,#3020,.T.);
#3040=EDGE_CURVE('',#3010,#2990,#2970,.T.);
#3050=ORIENTED_EDGE('',*,*,#3040,.T.);
#3060=EDGE_LOOP('',(#3050,#3030));
#3070=FACE_BOUND('',#3060,.T.);
#3080=ADVANCED_FACE('',(#2920,#3070),#2870,.T.);
#3090=CARTESIAN_POINT('',(0.,8.5,0.));
#3100=DIRECTION('',(0.,-1.,0.));
#3110=DIRECTION('',(1.,0.,0.));
#3120=AXIS2_PLACEMENT_3D('',#3090,#3100,#3110);
#3130=CYLINDRICAL_SURFACE('',#3120,1.635);
#3140=CARTESIAN_POINT('',(1.635,8.5,0.));
#3150=DIRECTION('',(0.,-1.,0.));
#3160=VECTOR('',#3150,1.);
#3170=LINE('',#3140,#3160);
#3180=CARTESIAN_POINT('',(1.635,10.,0.));
#3190=VERTEX_POINT('',#3180);
#3200=EDGE_CURVE('',#3190,#2990,#3170,.T.);
#3210=ORIENTED_EDGE('',*,*,#3200,.T.);
#3220=CARTESIAN_POINT('',(0.,10.,0.));
#3230=DIRECTION('',(0.,1.,0.));
#3240=DIRECTION('',(1.,0.,0.));
#3250=AXIS2_PLACEMENT_3D('',#3220,#3230,#3240);
#3260=CIRCLE('',#3250,1.635);
#3270=CARTESIAN_POINT('',(-1.635,10.,2.00229751660592E-16));
#3280=VERTEX_POINT('',#3270);
#3290=EDGE_CURVE('',#3280,#3190,#3260,.T.);
#3300=ORIENTED_EDGE('',*,*,#3290,.T.);
#3310=CARTESIAN_POINT('',(-1.635,8.5,2.00229751660592E-16));
#3320=DIRECTION('',(0.,-1.,0.));
#3330=VECTOR('',#3320,1.);
#3340=LINE('',#3310,#3330);
#3350=EDGE_CURVE('',#3280,#3010,#3340,.T.);
#3360=ORIENTED_EDGE('',*,*,#3350,.F.);
#3370=ORIENTED_EDGE('',*,*,#3040,.F.);
#3380=EDGE_LOOP('',(#3370,#3360,#3300,#3210));
#3390=FACE_OUTER_BOUND('',#3380,.T.);
#3400=ADVANCED_FACE('',(#3390),#3130,.F.);
#3410=CARTESIAN_POINT('',(0.,10.,0.));
#3420=DIRECTION('',(0.,-1.,0.));
#3430=DIRECTION('',(1.,0.,0.));
#3440=AXIS2_PLACEMENT_3D('',#3410,#3420,#3430);
#3450=CONICAL_SURFACE('',#3440,1.635,1.02974425867666);
#3460=CARTESIAN_POINT('',(1.635,10.,0.));
#3470=DIRECTION('',(0.857167300702113,-0.515038074910054,0.));
#3480=VECTOR('',#3470,1.90744560444706);
#3490=LINE('',#3460,#3480);
#3500=CARTESIAN_POINT('',(-2.22044604925031E-16,10.9824071121101,
2.46519032881566E-32));
#3510=VERTEX_POINT('',#3500);
#3520=EDGE_CURVE('',#3510,#3190,#3490,.T.);
#3530=ORIENTED_EDGE('',*,*,#3520,.T.);
#3540=CARTESIAN_POINT('',(-1.635,10.,2.00229751660592E-16));
#3550=DIRECTION('',(-0.857167300702113,-0.515038074910054,
1.04972719113862E-16));
#3560=VECTOR('',#3550,1.90744560444706);
#3570=LINE('',#3540,#3560);
#3580=EDGE_CURVE('',#3510,#3280,#3570,.T.);
#3590=ORIENTED_EDGE('',*,*,#3580,.F.);
#3600=ORIENTED_EDGE('',*,*,#3290,.F.);
#3610=EDGE_LOOP('',(#3600,#3590,#3530));
#3620=FACE_OUTER_BOUND('',#3610,.T.);
#3630=ADVANCED_FACE('',(#3620),#3450,.F.);
#3640=CARTESIAN_POINT('',(0.,0.85,0.));
#3650=DIRECTION('',(0.,-1.,0.));
#3660=DIRECTION('',(-1.,0.,0.));
#3670=AXIS2_PLACEMENT_3D('',#3640,#3650,#3660);
#3680=CONICAL_SURFACE('',#3670,1.65,0.785398163397448);
#3690=CARTESIAN_POINT('',(1.65,0.85,-2.02066721859313E-16));
#3700=DIRECTION('',(0.707106781186548,-0.707106781186548,
-8.65956056235493E-17));
#3710=VECTOR('',#3700,2.33345237791561);
#3720=LINE('',#3690,#3710);
#3730=EDGE_CURVE('',#2630,#120,#3720,.T.);
#3740=ORIENTED_EDGE('',*,*,#3730,.F.);
#3750=ORIENTED_EDGE('',*,*,#170,.T.);
#3760=CARTESIAN_POINT('',(-1.65,0.85,0.));
#3770=DIRECTION('',(-0.707106781186548,-0.707106781186548,0.));
#3780=VECTOR('',#3770,2.33345237791561);
#3790=LINE('',#3760,#3780);
#3800=EDGE_CURVE('',#2460,#140,#3790,.T.);
#3810=ORIENTED_EDGE('',*,*,#3800,.T.);
#3820=ORIENTED_EDGE('',*,*,#2710,.F.);
#3830=EDGE_LOOP('',(#3820,#3810,#3750,#3740));
#3840=FACE_OUTER_BOUND('',#3830,.T.);
#3850=ADVANCED_FACE('',(#3840),#3680,.F.);
#3860=CARTESIAN_POINT('',(0.,0.85,0.));
#3870=DIRECTION('',(0.,-1.,0.));
#3880=DIRECTION('',(-1.,0.,0.));
#3890=AXIS2_PLACEMENT_3D('',#3860,#3870,#3880);
#3900=CONICAL_SURFACE('',#3890,1.65,0.785398163397448);
#3910=ORIENTED_EDGE('',*,*,#150,.T.);
#3920=ORIENTED_EDGE('',*,*,#3730,.T.);
#3930=EDGE_CURVE('',#2630,#2460,#2700,.T.);
#3940=ORIENTED_EDGE('',*,*,#3930,.F.);
#3950=ORIENTED_EDGE('',*,*,#3800,.F.);
#3960=EDGE_LOOP('',(#3950,#3940,#3920,#3910));
#3970=FACE_OUTER_BOUND('',#3960,.T.);
#3980=ADVANCED_FACE('',(#3970),#3900,.F.);
#3990=CARTESIAN_POINT('',(0.,0.,0.));
#4000=DIRECTION('',(0.,1.,0.));
#4010=DIRECTION('',(1.,0.,0.));
#4020=AXIS2_PLACEMENT_3D('',#3990,#4000,#4010);
#4030=CONICAL_SURFACE('',#4020,5.75,0.785398163397448);
#4040=ORIENTED_EDGE('',*,*,#300,.F.);
#4050=ORIENTED_EDGE('',*,*,#2280,.F.);
#4060=EDGE_CURVE('',#580,#490,#560,.T.);
#4070=ORIENTED_EDGE('',*,*,#4060,.T.);
#4080=ORIENTED_EDGE('',*,*,#2210,.T.);
#4090=EDGE_LOOP('',(#4080,#4070,#4050,#4040));
#4100=FACE_OUTER_BOUND('',#4090,.T.);
#4110=ADVANCED_FACE('',(#4100),#4030,.T.);
#4120=CARTESIAN_POINT('',(0.,10.,0.));
#4130=DIRECTION('',(0.,-1.,0.));
#4140=DIRECTION('',(1.,0.,0.));
#4150=AXIS2_PLACEMENT_3D('',#4120,#4130,#4140);
#4160=CONICAL_SURFACE('',#4150,1.635,1.02974425867666);
#4170=ORIENTED_EDGE('',*,*,#3520,.F.);
#4180=EDGE_CURVE('',#3190,#3280,#3260,.T.);
#4190=ORIENTED_EDGE('',*,*,#4180,.F.);
#4200=ORIENTED_EDGE('',*,*,#3580,.T.);
#4210=EDGE_LOOP('',(#4200,#4190,#4170));
#4220=FACE_OUTER_BOUND('',#4210,.T.);
#4230=ADVANCED_FACE('',(#4220),#4160,.F.);
#4240=CARTESIAN_POINT('',(0.,14.7,0.));
#4250=DIRECTION('',(0.,-1.,0.));
#4260=DIRECTION('',(-1.,0.,0.));
#4270=AXIS2_PLACEMENT_3D('',#4240,#4250,#4260);
#4280=CONICAL_SURFACE('',#4270,9.,0.785398163397448);
#4290=ORIENTED_EDGE('',*,*,#1610,.T.);
#4300=ORIENTED_EDGE('',*,*,#1990,.F.);
#4310=EDGE_CURVE('',#1340,#1150,#1410,.T.);
#4320=ORIENTED_EDGE('',*,*,#4310,.F.);
#4330=ORIENTED_EDGE('',*,*,#2060,.T.);
#4340=EDGE_LOOP('',(#4330,#4320,#4300,#4290));
#4350=FACE_OUTER_BOUND('',#4340,.T.);
#4360=ADVANCED_FACE('',(#4350),#4280,.T.);
#4370=CARTESIAN_POINT('',(0.,13.,0.));
#4380=DIRECTION('',(0.,-1.,0.));
#4390=DIRECTION('',(-1.,0.,0.));
#4400=AXIS2_PLACEMENT_3D('',#4370,#4380,#4390);
#4410=CYLINDRICAL_SURFACE('',#4400,9.);
#4420=ORIENTED_EDGE('',*,*,#4310,.T.);
#4430=ORIENTED_EDGE('',*,*,#1350,.F.);
#4440=EDGE_CURVE('',#1260,#1170,#1240,.T.);
#4450=ORIENTED_EDGE('',*,*,#4440,.F.);
#4460=ORIENTED_EDGE('',*,*,#1180,.T.);
#4470=EDGE_LOOP('',(#4460,#4450,#4430,#4420));
#4480=FACE_OUTER_BOUND('',#4470,.T.);
#4490=ADVANCED_FACE('',(#4480),#4410,.T.);
#4500=CARTESIAN_POINT('',(0.,8.5,0.));
#4510=DIRECTION('',(0.,-1.,0.));
#4520=DIRECTION('',(1.,0.,0.));
#4530=AXIS2_PLACEMENT_3D('',#4500,#4510,#4520);
#4540=CYLINDRICAL_SURFACE('',#4530,1.635);
#4550=ORIENTED_EDGE('',*,*,#3020,.F.);
#4560=ORIENTED_EDGE('',*,*,#3350,.T.);
#4570=ORIENTED_EDGE('',*,*,#4180,.T.);
#4580=ORIENTED_EDGE('',*,*,#3200,.F.);
#4590=EDGE_LOOP('',(#4580,#4570,#4560,#4550));
#4600=FACE_OUTER_BOUND('',#4590,.T.);
#4610=ADVANCED_FACE('',(#4600),#4540,.F.);
#4620=CARTESIAN_POINT('',(0.,5.5,0.));
#4630=DIRECTION('',(0.,-1.,0.));
#4640=DIRECTION('',(-1.,0.,0.));
#4650=AXIS2_PLACEMENT_3D('',#4620,#4630,#4640);
#4660=CYLINDRICAL_SURFACE('',#4650,6.25);
#4670=ORIENTED_EDGE('',*,*,#840,.T.);
#4680=ORIENTED_EDGE('',*,*,#670,.F.);
#4690=ORIENTED_EDGE('',*,*,#4060,.F.);
#4700=ORIENTED_EDGE('',*,*,#500,.T.);
#4710=EDGE_LOOP('',(#4700,#4690,#4680,#4670));
#4720=FACE_OUTER_BOUND('',#4710,.T.);
#4730=ADVANCED_FACE('',(#4720),#4660,.T.);
#4740=CARTESIAN_POINT('',(0.,11.,0.));
#4750=DIRECTION('',(0.,1.,0.));
#4760=DIRECTION('',(1.,0.,0.));
#4770=AXIS2_PLACEMENT_3D('',#4740,#4750,#4760);
#4780=CONICAL_SURFACE('',#4770,8.7,0.785398163397448);
#4790=ORIENTED_EDGE('',*,*,#980,.F.);
#4800=ORIENTED_EDGE('',*,*,#1840,.F.);
#4810=ORIENTED_EDGE('',*,*,#4440,.T.);
#4820=ORIENTED_EDGE('',*,*,#1770,.T.);
#4830=EDGE_LOOP('',(#4820,#4810,#4800,#4790));
#4840=FACE_OUTER_BOUND('',#4830,.T.);
#4850=ADVANCED_FACE('',(#4840),#4780,.T.);
#4860=CARTESIAN_POINT('',(0.,3.5,0.));
#4870=DIRECTION('',(0.,-1.,0.));
#4880=DIRECTION('',(1.,0.,0.));
#4890=AXIS2_PLACEMENT_3D('',#4860,#4870,#4880);
#4900=CYLINDRICAL_SURFACE('',#4890,1.65);
#4910=ORIENTED_EDGE('',*,*,#2470,.F.);
#4920=ORIENTED_EDGE('',*,*,#3930,.T.);
#4930=ORIENTED_EDGE('',*,*,#2640,.T.);
#4940=ORIENTED_EDGE('',*,*,#2890,.T.);
#4950=EDGE_LOOP('',(#4940,#4930,#4920,#4910));
#4960=FACE_OUTER_BOUND('',#4950,.T.);
#4970=ADVANCED_FACE('',(#4960),#4900,.F.);
#4980=COLOUR_RGB('',1.,0.,0.);
#4990=FILL_AREA_STYLE_COLOUR('',#4980);
#5000=FILL_AREA_STYLE('',(#4990));
#5010=SURFACE_STYLE_FILL_AREA(#5000);
#5020=SURFACE_SIDE_STYLE('',(#5010));
#5030=SURFACE_STYLE_USAGE(.BOTH.,#5020);
#5040=PRESENTATION_STYLE_ASSIGNMENT((#5030));
#5050=CLOSED_SHELL('',(#360,#780,#1040,#1460,#1670,#1890,#2110,#2330,
#2750,#3080,#3400,#3630,#3850,#3980,#4110,#4230,#4360,#4490,#4610,#4730,
#4850,#4970));
#5060=MANIFOLD_SOLID_BREP('',#5050);
#5070=CARTESIAN_POINT('',(0.,0.,0.));
#5080=DIRECTION('',(0.,0.,1.));
#5090=DIRECTION('',(1.,0.,0.));
#5100=AXIS2_PLACEMENT_3D('',#5070,#5080,#5090);
#5110=APPLICATION_CONTEXT(' ');
#5120=APPLICATION_PROTOCOL_DEFINITION(' ','automotive_design',1998,#5110
);
#5130=PRODUCT_CONTEXT('',#5110,'mechanical');
#5140=PRODUCT_DEFINITION_CONTEXT('part definition',#5110,'design');
#5150=PRODUCT('NI-10219','NI-10219','',(#5130));
#5160=PRODUCT_RELATED_PRODUCT_CATEGORY('part',' ',(#5150));
#5170=PRODUCT_DEFINITION_FORMATION_WITH_SPECIFIED_SOURCE('','',#5150,
.BOUGHT.);
#5180=PRODUCT_DEFINITION('',' ',#5170,#5140);
#5190=PRODUCT_DEFINITION_SHAPE('','',#5180);
#5200=DIMENSIONAL_EXPONENTS(1.,0.,0.,0.,0.,0.,0.);
#5210=DIMENSIONAL_EXPONENTS(0.,0.,0.,0.,0.,0.,0.);
#5220=DIMENSIONAL_EXPONENTS(0.,0.,0.,0.,0.,0.,0.);
#5230=(LENGTH_UNIT() NAMED_UNIT(*) SI_UNIT(.MILLI.,.METRE.));
#5240=(NAMED_UNIT(*) PLANE_ANGLE_UNIT() SI_UNIT($,.RADIAN.));
#5250=(NAMED_UNIT(*) SI_UNIT($,.STERADIAN.) SOLID_ANGLE_UNIT());
#5260=(GEOMETRIC_REPRESENTATION_CONTEXT(3) 
GLOBAL_UNCERTAINTY_ASSIGNED_CONTEXT((#5270)) 
GLOBAL_UNIT_ASSIGNED_CONTEXT((#5230,#5240,#5250)) REPRESENTATION_CONTEXT
('',''));
#5270=UNCERTAINTY_MEASURE_WITH_UNIT(LENGTH_MEASURE(1.E-6),#5230,
'distance_accuracy_value','maximum gap value');
#5280=ADVANCED_BREP_SHAPE_REPRESENTATION('',(#5100,#5060),#5260);
#5290=SHAPE_DEFINITION_REPRESENTATION(#5190,#5280);
#5300=COLOUR_RGB('',0.600000023841858,0.600000023841858,
0.600000023841858);
#5310=FILL_AREA_STYLE_COLOUR('',#5300);
#5320=FILL_AREA_STYLE('',(#5310));
#5330=SURFACE_STYLE_FILL_AREA(#5320);
#5340=SURFACE_SIDE_STYLE('',(#5330));
#5350=SURFACE_STYLE_USAGE(.BOTH.,#5340);
#5360=PRESENTATION_STYLE_ASSIGNMENT((#5350));
#5370=STYLED_ITEM('',(#5360),#5060);
#5380=OVER_RIDING_STYLED_ITEM('',(#2820),#2750,#5370);
#5390=OVER_RIDING_STYLED_ITEM('',(#5040),#4970,#5370);
#5400=DRAUGHTING_MODEL('',(#5370,#5380,#5390),#5260);
ENDSEC;
END-ISO-10303-21;
