ISO-10303-21;
HEADER;
FILE_DESCRIPTION(('Creo Elements/Direct Modeling STEP Export'),'2;1');
FILE_NAME('2275-23.stp','2022-05-04T10:23:38',(''),(''),
'Creo Elements/Direct Modeling STEP processor for AP214 (Solid Model)',
'Creo Elements/Direct Modeling 20.0  12-Nov-2016 (C) Parametric Technolo
gy GmbH','');
FILE_SCHEMA(('AUTOMOTIVE_DESIGN { 1 0 10303 214 1 1 1 1 }'));
ENDSEC;
DATA;
#10=CARTESIAN_POINT('',(4.,0.,0.));
#20=DIRECTION('',(-0.,-1.,-0.));
#30=DIRECTION('',(-1.,0.,0.));
#40=AXIS2_PLACEMENT_3D('',#10,#20,#30);
#50=PLANE('',#40);
#60=CARTESIAN_POINT('',(0.,0.,0.));
#70=DIRECTION('',(0.,-1.,0.));
#80=DIRECTION('',(-1.,0.,0.));
#90=AXIS2_PLACEMENT_3D('',#60,#70,#80);
#100=CIRCLE('',#90,2.5);
#110=CARTESIAN_POINT('',(2.5,0.,-3.06161699786838E-16));
#120=VERTEX_POINT('',#110);
#130=CARTESIAN_POINT('',(-2.5,-2.22044604925031E-16,0.));
#140=VERTEX_POINT('',#130);
#150=EDGE_CURVE('',#120,#140,#100,.T.);
#160=ORIENTED_EDGE('',*,*,#150,.F.);
#170=EDGE_CURVE('',#140,#120,#100,.T.);
#180=ORIENTED_EDGE('',*,*,#170,.F.);
#190=EDGE_LOOP('',(#180,#160));
#200=FACE_BOUND('',#190,.T.);
#210=CARTESIAN_POINT('',(0.,0.,0.));
#220=DIRECTION('',(0.,-1.,0.));
#230=DIRECTION('',(-1.,0.,0.));
#240=AXIS2_PLACEMENT_3D('',#210,#220,#230);
#250=CIRCLE('',#240,7.5);
#260=CARTESIAN_POINT('',(7.5,0.,0.));
#270=VERTEX_POINT('',#260);
#280=CARTESIAN_POINT('',(-7.5,-1.68722975549459E-31,
-9.18485099360515E-16));
#290=VERTEX_POINT('',#280);
#300=EDGE_CURVE('',#270,#290,#250,.T.);
#310=ORIENTED_EDGE('',*,*,#300,.T.);
#320=EDGE_CURVE('',#290,#270,#250,.T.);
#330=ORIENTED_EDGE('',*,*,#320,.T.);
#340=EDGE_LOOP('',(#330,#310));
#350=FACE_OUTER_BOUND('',#340,.T.);
#360=ADVANCED_FACE('',(#200,#350),#50,.T.);
#370=CARTESIAN_POINT('',(0.,6.,0.));
#380=DIRECTION('',(0.,-1.,0.));
#390=DIRECTION('',(-1.,0.,0.));
#400=AXIS2_PLACEMENT_3D('',#370,#380,#390);
#410=CYLINDRICAL_SURFACE('',#400,8.);
#420=CARTESIAN_POINT('',(-8.,6.,0.));
#430=DIRECTION('',(0.,-1.,0.));
#440=VECTOR('',#430,1.);
#450=LINE('',#420,#440);
#460=CARTESIAN_POINT('',(-8.,12.,0.));
#470=VERTEX_POINT('',#460);
#480=CARTESIAN_POINT('',(-8.,0.5,0.));
#490=VERTEX_POINT('',#480);
#500=EDGE_CURVE('',#470,#490,#450,.T.);
#510=ORIENTED_EDGE('',*,*,#500,.F.);
#520=CARTESIAN_POINT('',(0.,0.5,0.));
#530=DIRECTION('',(0.,-1.,0.));
#540=DIRECTION('',(-1.,0.,0.));
#550=AXIS2_PLACEMENT_3D('',#520,#530,#540);
#560=CIRCLE('',#550,8.);
#570=CARTESIAN_POINT('',(8.,0.5,-9.79717439317883E-16));
#580=VERTEX_POINT('',#570);
#590=EDGE_CURVE('',#490,#580,#560,.T.);
#600=ORIENTED_EDGE('',*,*,#590,.F.);
#610=CARTESIAN_POINT('',(8.,6.,-9.79717439317883E-16));
#620=DIRECTION('',(0.,-1.,0.));
#630=VECTOR('',#620,1.);
#640=LINE('',#610,#630);
#650=CARTESIAN_POINT('',(8.,12.,-9.79717439317883E-16));
#660=VERTEX_POINT('',#650);
#670=EDGE_CURVE('',#660,#580,#640,.T.);
#680=ORIENTED_EDGE('',*,*,#670,.T.);
#690=CARTESIAN_POINT('',(0.,12.,0.));
#700=DIRECTION('',(0.,-1.,0.));
#710=DIRECTION('',(1.,0.,0.));
#720=AXIS2_PLACEMENT_3D('',#690,#700,#710);
#730=CIRCLE('',#720,8.);
#740=EDGE_CURVE('',#470,#660,#730,.T.);
#750=ORIENTED_EDGE('',*,*,#740,.T.);
#760=EDGE_LOOP('',(#750,#680,#600,#510));
#770=FACE_OUTER_BOUND('',#760,.T.);
#780=ADVANCED_FACE('',(#770),#410,.T.);
#790=CARTESIAN_POINT('',(0.,27.5,0.));
#800=DIRECTION('',(0.,1.,0.));
#810=DIRECTION('',(1.,0.,0.));
#820=AXIS2_PLACEMENT_3D('',#790,#800,#810);
#830=CONICAL_SURFACE('',#820,11.35,0.2128550578921);
#840=CARTESIAN_POINT('',(-11.35,27.5,-1.38997411703225E-15));
#850=DIRECTION('',(-0.211251381319544,0.97743176431431,
-2.58708327948437E-17));
#860=VECTOR('',#850,53.7274593382738);
#870=LINE('',#840,#860);
#880=CARTESIAN_POINT('',(-11.35,27.5,-1.38997411703225E-15));
#890=VERTEX_POINT('',#880);
#900=EDGE_CURVE('',#470,#890,#870,.T.);
#910=ORIENTED_EDGE('',*,*,#900,.T.);
#920=ORIENTED_EDGE('',*,*,#740,.F.);
#930=CARTESIAN_POINT('',(11.35,27.5,0.));
#940=DIRECTION('',(0.211251381319544,0.97743176431431,0.));
#950=VECTOR('',#940,53.7274593382738);
#960=LINE('',#930,#950);
#970=CARTESIAN_POINT('',(11.35,27.5,0.));
#980=VERTEX_POINT('',#970);
#990=EDGE_CURVE('',#660,#980,#960,.T.);
#1000=ORIENTED_EDGE('',*,*,#990,.F.);
#1010=CARTESIAN_POINT('',(0.,27.5,0.));
#1020=DIRECTION('',(0.,-1.,0.));
#1030=DIRECTION('',(1.,0.,0.));
#1040=AXIS2_PLACEMENT_3D('',#1010,#1020,#1030);
#1050=CIRCLE('',#1040,11.35);
#1060=EDGE_CURVE('',#890,#980,#1050,.T.);
#1070=ORIENTED_EDGE('',*,*,#1060,.T.);
#1080=EDGE_LOOP('',(#1070,#1000,#920,#910));
#1090=FACE_OUTER_BOUND('',#1080,.T.);
#1100=ADVANCED_FACE('',(#1090),#830,.T.);
#1110=CARTESIAN_POINT('',(0.,27.5,0.));
#1120=DIRECTION('',(0.,-1.,0.));
#1130=DIRECTION('',(-1.,0.,0.));
#1140=AXIS2_PLACEMENT_3D('',#1110,#1120,#1130);
#1150=CONICAL_SURFACE('',#1140,11.35,0.78539816339745);
#1160=CARTESIAN_POINT('',(-11.35,27.5,0.));
#1170=DIRECTION('',(-0.707106781186549,-0.707106781186546,0.));
#1180=VECTOR('',#1170,16.0513239329346);
#1190=LINE('',#1160,#1180);
#1200=CARTESIAN_POINT('',(-10.65,28.2,0.));
#1210=VERTEX_POINT('',#1200);
#1220=EDGE_CURVE('',#1210,#890,#1190,.T.);
#1230=ORIENTED_EDGE('',*,*,#1220,.F.);
#1240=ORIENTED_EDGE('',*,*,#1060,.F.);
#1250=CARTESIAN_POINT('',(11.35,27.5,-1.38997411703225E-15));
#1260=DIRECTION('',(0.707106781186549,-0.707106781186546,
-8.65956056235495E-17));
#1270=VECTOR('',#1260,16.0513239329346);
#1280=LINE('',#1250,#1270);
#1290=CARTESIAN_POINT('',(10.65,28.2,-1.30424884109193E-15));
#1300=VERTEX_POINT('',#1290);
#1310=EDGE_CURVE('',#1300,#980,#1280,.T.);
#1320=ORIENTED_EDGE('',*,*,#1310,.T.);
#1330=CARTESIAN_POINT('',(0.,28.2,0.));
#1340=DIRECTION('',(0.,-1.,0.));
#1350=DIRECTION('',(1.,0.,0.));
#1360=AXIS2_PLACEMENT_3D('',#1330,#1340,#1350);
#1370=CIRCLE('',#1360,10.65);
#1380=EDGE_CURVE('',#1210,#1300,#1370,.T.);
#1390=ORIENTED_EDGE('',*,*,#1380,.T.);
#1400=EDGE_LOOP('',(#1390,#1320,#1240,#1230));
#1410=FACE_OUTER_BOUND('',#1400,.T.);
#1420=ADVANCED_FACE('',(#1410),#1150,.T.);
#1430=CARTESIAN_POINT('',(5.325,28.2,0.));
#1440=DIRECTION('',(-0.,-1.,-0.));
#1450=DIRECTION('',(-1.,0.,0.));
#1460=AXIS2_PLACEMENT_3D('',#1430,#1440,#1450);
#1470=PLANE('',#1460);
#1480=EDGE_CURVE('',#1300,#1210,#1370,.T.);
#1490=ORIENTED_EDGE('',*,*,#1480,.F.);
#1500=ORIENTED_EDGE('',*,*,#1380,.F.);
#1510=EDGE_LOOP('',(#1500,#1490));
#1520=FACE_OUTER_BOUND('',#1510,.T.);
#1530=ADVANCED_FACE('',(#1520),#1470,.F.);
#1540=CARTESIAN_POINT('',(0.,0.,0.));
#1550=DIRECTION('',(0.,1.,0.));
#1560=DIRECTION('',(1.,0.,0.));
#1570=AXIS2_PLACEMENT_3D('',#1540,#1550,#1560);
#1580=CONICAL_SURFACE('',#1570,7.5,0.785398163397448);
#1590=CARTESIAN_POINT('',(7.5,0.,0.));
#1600=DIRECTION('',(0.707106781186548,0.707106781186548,0.));
#1610=VECTOR('',#1600,10.6066017177982);
#1620=LINE('',#1590,#1610);
#1630=EDGE_CURVE('',#270,#580,#1620,.T.);
#1640=ORIENTED_EDGE('',*,*,#1630,.F.);
#1650=ORIENTED_EDGE('',*,*,#590,.T.);
#1660=CARTESIAN_POINT('',(-7.5,0.,-9.18485099360515E-16));
#1670=DIRECTION('',(-0.707106781186548,0.707106781186548,
-8.65956056235494E-17));
#1680=VECTOR('',#1670,10.6066017177982);
#1690=LINE('',#1660,#1680);
#1700=EDGE_CURVE('',#290,#490,#1690,.T.);
#1710=ORIENTED_EDGE('',*,*,#1700,.T.);
#1720=ORIENTED_EDGE('',*,*,#320,.F.);
#1730=EDGE_LOOP('',(#1720,#1710,#1650,#1640));
#1740=FACE_OUTER_BOUND('',#1730,.T.);
#1750=ADVANCED_FACE('',(#1740),#1580,.T.);
#1760=CARTESIAN_POINT('',(0.,3.5,0.));
#1770=DIRECTION('',(0.,-1.,0.));
#1780=DIRECTION('',(1.,0.,0.));
#1790=AXIS2_PLACEMENT_3D('',#1760,#1770,#1780);
#1800=CYLINDRICAL_SURFACE('',#1790,1.65);
#1810=CARTESIAN_POINT('',(-1.65,3.5,2.02066721859313E-16));
#1820=DIRECTION('',(0.,-1.,0.));
#1830=VECTOR('',#1820,1.);
#1840=LINE('',#1810,#1830);
#1850=CARTESIAN_POINT('',(-1.65,7.,2.02066721859313E-16));
#1860=VERTEX_POINT('',#1850);
#1870=CARTESIAN_POINT('',(-1.65,0.85,2.02066721859313E-16));
#1880=VERTEX_POINT('',#1870);
#1890=EDGE_CURVE('',#1860,#1880,#1840,.T.);
#1900=ORIENTED_EDGE('',*,*,#1890,.T.);
#1910=CARTESIAN_POINT('',(0.,7.,0.));
#1920=DIRECTION('',(0.,1.,0.));
#1930=DIRECTION('',(1.,0.,0.));
#1940=AXIS2_PLACEMENT_3D('',#1910,#1920,#1930);
#1950=CIRCLE('',#1940,1.65);
#1960=CARTESIAN_POINT('',(1.65,7.,0.));
#1970=VERTEX_POINT('',#1960);
#1980=EDGE_CURVE('',#1970,#1860,#1950,.T.);
#1990=ORIENTED_EDGE('',*,*,#1980,.T.);
#2000=CARTESIAN_POINT('',(1.65,3.5,0.));
#2010=DIRECTION('',(0.,-1.,0.));
#2020=VECTOR('',#2010,1.);
#2030=LINE('',#2000,#2020);
#2040=CARTESIAN_POINT('',(1.65,0.850000000000001,0.));
#2050=VERTEX_POINT('',#2040);
#2060=EDGE_CURVE('',#1970,#2050,#2030,.T.);
#2070=ORIENTED_EDGE('',*,*,#2060,.F.);
#2080=CARTESIAN_POINT('',(0.,0.85,0.));
#2090=DIRECTION('',(0.,-1.,0.));
#2100=DIRECTION('',(-1.,0.,0.));
#2110=AXIS2_PLACEMENT_3D('',#2080,#2090,#2100);
#2120=CIRCLE('',#2110,1.65);
#2130=EDGE_CURVE('',#1880,#2050,#2120,.T.);
#2140=ORIENTED_EDGE('',*,*,#2130,.T.);
#2150=EDGE_LOOP('',(#2140,#2070,#1990,#1900));
#2160=FACE_OUTER_BOUND('',#2150,.T.);
#2170=ADVANCED_FACE('M4_101838',(#2160),#1800,.F.);
#2180=COLOUR_RGB('',1.,0.,0.);
#2190=FILL_AREA_STYLE_COLOUR('',#2180);
#2200=FILL_AREA_STYLE('',(#2190));
#2210=SURFACE_STYLE_FILL_AREA(#2200);
#2220=SURFACE_SIDE_STYLE('',(#2210));
#2230=SURFACE_STYLE_USAGE(.BOTH.,#2220);
#2240=PRESENTATION_STYLE_ASSIGNMENT((#2230));
#2250=CARTESIAN_POINT('',(1.6425,7.,0.));
#2260=DIRECTION('',(0.,-1.,0.));
#2270=DIRECTION('',(1.,0.,0.));
#2280=AXIS2_PLACEMENT_3D('',#2250,#2260,#2270);
#2290=PLANE('',#2280);
#2300=ORIENTED_EDGE('',*,*,#1980,.F.);
#2310=EDGE_CURVE('',#1860,#1970,#1950,.T.);
#2320=ORIENTED_EDGE('',*,*,#2310,.F.);
#2330=EDGE_LOOP('',(#2320,#2300));
#2340=FACE_OUTER_BOUND('',#2330,.T.);
#2350=CARTESIAN_POINT('',(0.,7.,0.));
#2360=DIRECTION('',(0.,1.,0.));
#2370=DIRECTION('',(1.,0.,0.));
#2380=AXIS2_PLACEMENT_3D('',#2350,#2360,#2370);
#2390=CIRCLE('',#2380,1.635);
#2400=CARTESIAN_POINT('',(1.635,7.,0.));
#2410=VERTEX_POINT('',#2400);
#2420=CARTESIAN_POINT('',(-1.635,7.,2.00229751660592E-16));
#2430=VERTEX_POINT('',#2420);
#2440=EDGE_CURVE('',#2410,#2430,#2390,.T.);
#2450=ORIENTED_EDGE('',*,*,#2440,.T.);
#2460=EDGE_CURVE('',#2430,#2410,#2390,.T.);
#2470=ORIENTED_EDGE('',*,*,#2460,.T.);
#2480=EDGE_LOOP('',(#2470,#2450));
#2490=FACE_BOUND('',#2480,.T.);
#2500=ADVANCED_FACE('',(#2340,#2490),#2290,.T.);
#2510=CARTESIAN_POINT('',(0.,8.5,0.));
#2520=DIRECTION('',(0.,-1.,0.));
#2530=DIRECTION('',(1.,0.,0.));
#2540=AXIS2_PLACEMENT_3D('',#2510,#2520,#2530);
#2550=CYLINDRICAL_SURFACE('',#2540,1.635);
#2560=CARTESIAN_POINT('',(1.635,8.5,0.));
#2570=DIRECTION('',(0.,-1.,0.));
#2580=VECTOR('',#2570,1.);
#2590=LINE('',#2560,#2580);
#2600=CARTESIAN_POINT('',(1.635,10.,0.));
#2610=VERTEX_POINT('',#2600);
#2620=EDGE_CURVE('',#2610,#2410,#2590,.T.);
#2630=ORIENTED_EDGE('',*,*,#2620,.T.);
#2640=CARTESIAN_POINT('',(0.,10.,0.));
#2650=DIRECTION('',(0.,1.,0.));
#2660=DIRECTION('',(1.,0.,0.));
#2670=AXIS2_PLACEMENT_3D('',#2640,#2650,#2660);
#2680=CIRCLE('',#2670,1.635);
#2690=CARTESIAN_POINT('',(-1.635,10.,2.00229751660592E-16));
#2700=VERTEX_POINT('',#2690);
#2710=EDGE_CURVE('',#2700,#2610,#2680,.T.);
#2720=ORIENTED_EDGE('',*,*,#2710,.T.);
#2730=CARTESIAN_POINT('',(-1.635,8.5,2.00229751660592E-16));
#2740=DIRECTION('',(0.,-1.,0.));
#2750=VECTOR('',#2740,1.);
#2760=LINE('',#2730,#2750);
#2770=EDGE_CURVE('',#2700,#2430,#2760,.T.);
#2780=ORIENTED_EDGE('',*,*,#2770,.F.);
#2790=ORIENTED_EDGE('',*,*,#2460,.F.);
#2800=EDGE_LOOP('',(#2790,#2780,#2720,#2630));
#2810=FACE_OUTER_BOUND('',#2800,.T.);
#2820=ADVANCED_FACE('',(#2810),#2550,.F.);
#2830=CARTESIAN_POINT('',(0.,10.,0.));
#2840=DIRECTION('',(0.,-1.,0.));
#2850=DIRECTION('',(1.,0.,0.));
#2860=AXIS2_PLACEMENT_3D('',#2830,#2840,#2850);
#2870=CONICAL_SURFACE('',#2860,1.635,1.02974425867666);
#2880=CARTESIAN_POINT('',(1.635,10.,0.));
#2890=DIRECTION('',(0.857167300702113,-0.515038074910054,0.));
#2900=VECTOR('',#2890,1.90744560444706);
#2910=LINE('',#2880,#2900);
#2920=CARTESIAN_POINT('',(-2.22044604925031E-16,10.9824071121101,
2.46519032881566E-32));
#2930=VERTEX_POINT('',#2920);
#2940=EDGE_CURVE('',#2930,#2610,#2910,.T.);
#2950=ORIENTED_EDGE('',*,*,#2940,.T.);
#2960=CARTESIAN_POINT('',(-1.635,10.,2.00229751660592E-16));
#2970=DIRECTION('',(-0.857167300702113,-0.515038074910054,
1.04972719113862E-16));
#2980=VECTOR('',#2970,1.90744560444706);
#2990=LINE('',#2960,#2980);
#3000=EDGE_CURVE('',#2930,#2700,#2990,.T.);
#3010=ORIENTED_EDGE('',*,*,#3000,.F.);
#3020=ORIENTED_EDGE('',*,*,#2710,.F.);
#3030=EDGE_LOOP('',(#3020,#3010,#2950));
#3040=FACE_OUTER_BOUND('',#3030,.T.);
#3050=ADVANCED_FACE('',(#3040),#2870,.F.);
#3060=CARTESIAN_POINT('',(0.,0.85,0.));
#3070=DIRECTION('',(0.,-1.,0.));
#3080=DIRECTION('',(-1.,0.,0.));
#3090=AXIS2_PLACEMENT_3D('',#3060,#3070,#3080);
#3100=CONICAL_SURFACE('',#3090,1.65,0.785398163397448);
#3110=CARTESIAN_POINT('',(1.65,0.85,-2.02066721859313E-16));
#3120=DIRECTION('',(0.707106781186548,-0.707106781186548,
-8.65956056235493E-17));
#3130=VECTOR('',#3120,2.33345237791561);
#3140=LINE('',#3110,#3130);
#3150=EDGE_CURVE('',#2050,#120,#3140,.T.);
#3160=ORIENTED_EDGE('',*,*,#3150,.F.);
#3170=ORIENTED_EDGE('',*,*,#170,.T.);
#3180=CARTESIAN_POINT('',(-1.65,0.85,0.));
#3190=DIRECTION('',(-0.707106781186548,-0.707106781186548,0.));
#3200=VECTOR('',#3190,2.33345237791561);
#3210=LINE('',#3180,#3200);
#3220=EDGE_CURVE('',#1880,#140,#3210,.T.);
#3230=ORIENTED_EDGE('',*,*,#3220,.T.);
#3240=ORIENTED_EDGE('',*,*,#2130,.F.);
#3250=EDGE_LOOP('',(#3240,#3230,#3170,#3160));
#3260=FACE_OUTER_BOUND('',#3250,.T.);
#3270=ADVANCED_FACE('',(#3260),#3100,.F.);
#3280=CARTESIAN_POINT('',(0.,0.85,0.));
#3290=DIRECTION('',(0.,-1.,0.));
#3300=DIRECTION('',(-1.,0.,0.));
#3310=AXIS2_PLACEMENT_3D('',#3280,#3290,#3300);
#3320=CONICAL_SURFACE('',#3310,1.65,0.785398163397448);
#3330=ORIENTED_EDGE('',*,*,#150,.T.);
#3340=ORIENTED_EDGE('',*,*,#3150,.T.);
#3350=EDGE_CURVE('',#2050,#1880,#2120,.T.);
#3360=ORIENTED_EDGE('',*,*,#3350,.F.);
#3370=ORIENTED_EDGE('',*,*,#3220,.F.);
#3380=EDGE_LOOP('',(#3370,#3360,#3340,#3330));
#3390=FACE_OUTER_BOUND('',#3380,.T.);
#3400=ADVANCED_FACE('',(#3390),#3320,.F.);
#3410=CARTESIAN_POINT('',(0.,8.5,0.));
#3420=DIRECTION('',(0.,-1.,0.));
#3430=DIRECTION('',(1.,0.,0.));
#3440=AXIS2_PLACEMENT_3D('',#3410,#3420,#3430);
#3450=CYLINDRICAL_SURFACE('',#3440,1.635);
#3460=ORIENTED_EDGE('',*,*,#2440,.F.);
#3470=ORIENTED_EDGE('',*,*,#2770,.T.);
#3480=EDGE_CURVE('',#2610,#2700,#2680,.T.);
#3490=ORIENTED_EDGE('',*,*,#3480,.T.);
#3500=ORIENTED_EDGE('',*,*,#2620,.F.);
#3510=EDGE_LOOP('',(#3500,#3490,#3470,#3460));
#3520=FACE_OUTER_BOUND('',#3510,.T.);
#3530=ADVANCED_FACE('',(#3520),#3450,.F.);
#3540=CARTESIAN_POINT('',(0.,0.,0.));
#3550=DIRECTION('',(0.,1.,0.));
#3560=DIRECTION('',(1.,0.,0.));
#3570=AXIS2_PLACEMENT_3D('',#3540,#3550,#3560);
#3580=CONICAL_SURFACE('',#3570,7.5,0.785398163397448);
#3590=ORIENTED_EDGE('',*,*,#300,.F.);
#3600=ORIENTED_EDGE('',*,*,#1700,.F.);
#3610=EDGE_CURVE('',#580,#490,#560,.T.);
#3620=ORIENTED_EDGE('',*,*,#3610,.T.);
#3630=ORIENTED_EDGE('',*,*,#1630,.T.);
#3640=EDGE_LOOP('',(#3630,#3620,#3600,#3590));
#3650=FACE_OUTER_BOUND('',#3640,.T.);
#3660=ADVANCED_FACE('',(#3650),#3580,.T.);
#3670=CARTESIAN_POINT('',(0.,27.5,0.));
#3680=DIRECTION('',(0.,-1.,0.));
#3690=DIRECTION('',(-1.,0.,0.));
#3700=AXIS2_PLACEMENT_3D('',#3670,#3680,#3690);
#3710=CONICAL_SURFACE('',#3700,11.35,0.78539816339745);
#3720=ORIENTED_EDGE('',*,*,#1480,.T.);
#3730=ORIENTED_EDGE('',*,*,#1310,.F.);
#3740=EDGE_CURVE('',#980,#890,#1050,.T.);
#3750=ORIENTED_EDGE('',*,*,#3740,.F.);
#3760=ORIENTED_EDGE('',*,*,#1220,.T.);
#3770=EDGE_LOOP('',(#3760,#3750,#3730,#3720));
#3780=FACE_OUTER_BOUND('',#3770,.T.);
#3790=ADVANCED_FACE('',(#3780),#3710,.T.);
#3800=CARTESIAN_POINT('',(0.,27.5,0.));
#3810=DIRECTION('',(0.,1.,0.));
#3820=DIRECTION('',(1.,0.,0.));
#3830=AXIS2_PLACEMENT_3D('',#3800,#3810,#3820);
#3840=CONICAL_SURFACE('',#3830,11.35,0.2128550578921);
#3850=EDGE_CURVE('',#660,#470,#730,.T.);
#3860=ORIENTED_EDGE('',*,*,#3850,.F.);
#3870=ORIENTED_EDGE('',*,*,#900,.F.);
#3880=ORIENTED_EDGE('',*,*,#3740,.T.);
#3890=ORIENTED_EDGE('',*,*,#990,.T.);
#3900=EDGE_LOOP('',(#3890,#3880,#3870,#3860));
#3910=FACE_OUTER_BOUND('',#3900,.T.);
#3920=ADVANCED_FACE('',(#3910),#3840,.T.);
#3930=CARTESIAN_POINT('',(0.,10.,0.));
#3940=DIRECTION('',(0.,-1.,0.));
#3950=DIRECTION('',(1.,0.,0.));
#3960=AXIS2_PLACEMENT_3D('',#3930,#3940,#3950);
#3970=CONICAL_SURFACE('',#3960,1.635,1.02974425867666);
#3980=ORIENTED_EDGE('',*,*,#2940,.F.);
#3990=ORIENTED_EDGE('',*,*,#3480,.F.);
#4000=ORIENTED_EDGE('',*,*,#3000,.T.);
#4010=EDGE_LOOP('',(#4000,#3990,#3980));
#4020=FACE_OUTER_BOUND('',#4010,.T.);
#4030=ADVANCED_FACE('',(#4020),#3970,.F.);
#4040=CARTESIAN_POINT('',(0.,3.5,0.));
#4050=DIRECTION('',(0.,-1.,0.));
#4060=DIRECTION('',(1.,0.,0.));
#4070=AXIS2_PLACEMENT_3D('',#4040,#4050,#4060);
#4080=CYLINDRICAL_SURFACE('',#4070,1.65);
#4090=ORIENTED_EDGE('',*,*,#1890,.F.);
#4100=ORIENTED_EDGE('',*,*,#3350,.T.);
#4110=ORIENTED_EDGE('',*,*,#2060,.T.);
#4120=ORIENTED_EDGE('',*,*,#2310,.T.);
#4130=EDGE_LOOP('',(#4120,#4110,#4100,#4090));
#4140=FACE_OUTER_BOUND('',#4130,.T.);
#4150=ADVANCED_FACE('',(#4140),#4080,.F.);
#4160=COLOUR_RGB('',1.,0.,0.);
#4170=FILL_AREA_STYLE_COLOUR('',#4160);
#4180=FILL_AREA_STYLE('',(#4170));
#4190=SURFACE_STYLE_FILL_AREA(#4180);
#4200=SURFACE_SIDE_STYLE('',(#4190));
#4210=SURFACE_STYLE_USAGE(.BOTH.,#4200);
#4220=PRESENTATION_STYLE_ASSIGNMENT((#4210));
#4230=CARTESIAN_POINT('',(0.,6.,0.));
#4240=DIRECTION('',(0.,-1.,0.));
#4250=DIRECTION('',(-1.,0.,0.));
#4260=AXIS2_PLACEMENT_3D('',#4230,#4240,#4250);
#4270=CYLINDRICAL_SURFACE('',#4260,8.);
#4280=ORIENTED_EDGE('',*,*,#3850,.T.);
#4290=ORIENTED_EDGE('',*,*,#670,.F.);
#4300=ORIENTED_EDGE('',*,*,#3610,.F.);
#4310=ORIENTED_EDGE('',*,*,#500,.T.);
#4320=EDGE_LOOP('',(#4310,#4300,#4290,#4280));
#4330=FACE_OUTER_BOUND('',#4320,.T.);
#4340=ADVANCED_FACE('',(#4330),#4270,.T.);
#4350=CLOSED_SHELL('',(#360,#780,#1100,#1420,#1530,#1750,#2170,#2500,
#2820,#3050,#3270,#3400,#3530,#3660,#3790,#3920,#4030,#4150,#4340));
#4360=MANIFOLD_SOLID_BREP('',#4350);
#4370=CARTESIAN_POINT('',(0.,0.,0.));
#4380=DIRECTION('',(0.,0.,1.));
#4390=DIRECTION('',(1.,0.,0.));
#4400=AXIS2_PLACEMENT_3D('',#4370,#4380,#4390);
#4410=APPLICATION_CONTEXT(' ');
#4420=APPLICATION_PROTOCOL_DEFINITION(' ','automotive_design',1998,#4410
);
#4430=PRODUCT_CONTEXT('',#4410,'mechanical');
#4440=PRODUCT_DEFINITION_CONTEXT('part definition',#4410,'design');
#4450=PRODUCT('NI-10222','NI-10222','',(#4430));
#4460=PRODUCT_RELATED_PRODUCT_CATEGORY('part',' ',(#4450));
#4470=PRODUCT_DEFINITION_FORMATION_WITH_SPECIFIED_SOURCE('','',#4450,
.BOUGHT.);
#4480=PRODUCT_DEFINITION('',' ',#4470,#4440);
#4490=PRODUCT_DEFINITION_SHAPE('','',#4480);
#4500=DIMENSIONAL_EXPONENTS(1.,0.,0.,0.,0.,0.,0.);
#4510=DIMENSIONAL_EXPONENTS(0.,0.,0.,0.,0.,0.,0.);
#4520=DIMENSIONAL_EXPONENTS(0.,0.,0.,0.,0.,0.,0.);
#4530=(LENGTH_UNIT() NAMED_UNIT(*) SI_UNIT(.MILLI.,.METRE.));
#4540=(NAMED_UNIT(*) PLANE_ANGLE_UNIT() SI_UNIT($,.RADIAN.));
#4550=(NAMED_UNIT(*) SI_UNIT($,.STERADIAN.) SOLID_ANGLE_UNIT());
#4560=(GEOMETRIC_REPRESENTATION_CONTEXT(3) 
GLOBAL_UNCERTAINTY_ASSIGNED_CONTEXT((#4570)) 
GLOBAL_UNIT_ASSIGNED_CONTEXT((#4530,#4540,#4550)) REPRESENTATION_CONTEXT
('',''));
#4570=UNCERTAINTY_MEASURE_WITH_UNIT(LENGTH_MEASURE(1.E-6),#4530,
'distance_accuracy_value','maximum gap value');
#4580=ADVANCED_BREP_SHAPE_REPRESENTATION('',(#4400,#4360),#4560);
#4590=SHAPE_DEFINITION_REPRESENTATION(#4490,#4580);
#4600=COLOUR_RGB('',0.600000023841858,0.600000023841858,
0.600000023841858);
#4610=FILL_AREA_STYLE_COLOUR('',#4600);
#4620=FILL_AREA_STYLE('',(#4610));
#4630=SURFACE_STYLE_FILL_AREA(#4620);
#4640=SURFACE_SIDE_STYLE('',(#4630));
#4650=SURFACE_STYLE_USAGE(.BOTH.,#4640);
#4660=PRESENTATION_STYLE_ASSIGNMENT((#4650));
#4670=STYLED_ITEM('',(#4660),#4360);
#4680=OVER_RIDING_STYLED_ITEM('',(#2240),#2170,#4670);
#4690=OVER_RIDING_STYLED_ITEM('',(#4220),#4150,#4670);
#4700=DRAUGHTING_MODEL('',(#4670,#4680,#4690),#4560);
ENDSEC;
END-ISO-10303-21;
