ISO-10303-21;
HEADER;
FILE_DESCRIPTION(('Creo Elements/Direct Modeling STEP Export'),'2;1');
FILE_NAME('2275-16.stp','2022-05-04T10:21:45',(''),(''),
'Creo Elements/Direct Modeling STEP processor for AP214 (Solid Model)',
'Creo Elements/Direct Modeling 20.0  12-Nov-2016 (C) Parametric Technolo
gy GmbH','');
FILE_SCHEMA(('AUTOMOTIVE_DESIGN { 1 0 10303 214 1 1 1 1 }'));
ENDSEC;
DATA;
#10=CARTESIAN_POINT('',(2.75,0.,0.));
#20=DIRECTION('',(-0.,-1.,-0.));
#30=DIRECTION('',(-1.,0.,0.));
#40=AXIS2_PLACEMENT_3D('',#10,#20,#30);
#50=PLANE('',#40);
#60=CARTESIAN_POINT('',(0.,0.,0.));
#70=DIRECTION('',(0.,-1.,0.));
#80=DIRECTION('',(-1.,0.,0.));
#90=AXIS2_PLACEMENT_3D('',#60,#70,#80);
#100=CIRCLE('',#90,2.5);
#110=CARTESIAN_POINT('',(2.5,0.,-3.06161699786838E-16));
#120=VERTEX_POINT('',#110);
#130=CARTESIAN_POINT('',(-2.5,-2.22044604925031E-16,0.));
#140=VERTEX_POINT('',#130);
#150=EDGE_CURVE('',#120,#140,#100,.T.);
#160=ORIENTED_EDGE('',*,*,#150,.F.);
#170=EDGE_CURVE('',#140,#120,#100,.T.);
#180=ORIENTED_EDGE('',*,*,#170,.F.);
#190=EDGE_LOOP('',(#180,#160));
#200=FACE_BOUND('',#190,.T.);
#210=CARTESIAN_POINT('',(0.,0.,0.));
#220=DIRECTION('',(0.,-1.,0.));
#230=DIRECTION('',(-1.,0.,0.));
#240=AXIS2_PLACEMENT_3D('',#210,#220,#230);
#250=CIRCLE('',#240,5.);
#260=CARTESIAN_POINT('',(5.,0.,0.));
#270=VERTEX_POINT('',#260);
#280=CARTESIAN_POINT('',(-5.,-1.12481983699639E-31,-6.12323399573677E-16
));
#290=VERTEX_POINT('',#280);
#300=EDGE_CURVE('',#270,#290,#250,.T.);
#310=ORIENTED_EDGE('',*,*,#300,.T.);
#320=EDGE_CURVE('',#290,#270,#250,.T.);
#330=ORIENTED_EDGE('',*,*,#320,.T.);
#340=EDGE_LOOP('',(#330,#310));
#350=FACE_OUTER_BOUND('',#340,.T.);
#360=ADVANCED_FACE('',(#200,#350),#50,.T.);
#370=CARTESIAN_POINT('',(0.,3.95,0.));
#380=DIRECTION('',(0.,-1.,0.));
#390=DIRECTION('',(-1.,0.,0.));
#400=AXIS2_PLACEMENT_3D('',#370,#380,#390);
#410=CYLINDRICAL_SURFACE('',#400,5.5);
#420=CARTESIAN_POINT('',(-5.5,3.95,0.));
#430=DIRECTION('',(0.,-1.,0.));
#440=VECTOR('',#430,1.);
#450=LINE('',#420,#440);
#460=CARTESIAN_POINT('',(-5.5,7.9,0.));
#470=VERTEX_POINT('',#460);
#480=CARTESIAN_POINT('',(-5.5,0.5,0.));
#490=VERTEX_POINT('',#480);
#500=EDGE_CURVE('',#470,#490,#450,.T.);
#510=ORIENTED_EDGE('',*,*,#500,.F.);
#520=CARTESIAN_POINT('',(0.,0.5,0.));
#530=DIRECTION('',(0.,-1.,0.));
#540=DIRECTION('',(-1.,0.,0.));
#550=AXIS2_PLACEMENT_3D('',#520,#530,#540);
#560=CIRCLE('',#550,5.5);
#570=CARTESIAN_POINT('',(5.5,0.5,-6.73555739531044E-16));
#580=VERTEX_POINT('',#570);
#590=EDGE_CURVE('',#490,#580,#560,.T.);
#600=ORIENTED_EDGE('',*,*,#590,.F.);
#610=CARTESIAN_POINT('',(5.5,3.95,-6.73555739531044E-16));
#620=DIRECTION('',(0.,-1.,0.));
#630=VECTOR('',#620,1.);
#640=LINE('',#610,#630);
#650=CARTESIAN_POINT('',(5.5,7.89999999999999,-6.73555739531044E-16));
#660=VERTEX_POINT('',#650);
#670=EDGE_CURVE('',#660,#580,#640,.T.);
#680=ORIENTED_EDGE('',*,*,#670,.T.);
#690=CARTESIAN_POINT('',(0.,7.9,0.));
#700=DIRECTION('',(0.,-1.,0.));
#710=DIRECTION('',(1.,0.,0.));
#720=AXIS2_PLACEMENT_3D('',#690,#700,#710);
#730=CIRCLE('',#720,5.5);
#740=EDGE_CURVE('',#470,#660,#730,.T.);
#750=ORIENTED_EDGE('',*,*,#740,.T.);
#760=EDGE_LOOP('',(#750,#680,#600,#510));
#770=FACE_OUTER_BOUND('',#760,.T.);
#780=ADVANCED_FACE('',(#770),#410,.T.);
#790=CARTESIAN_POINT('',(0.,18.3,0.));
#800=DIRECTION('',(0.,1.,0.));
#810=DIRECTION('',(1.,0.,0.));
#820=AXIS2_PLACEMENT_3D('',#790,#800,#810);
#830=CONICAL_SURFACE('',#820,7.85,0.222229459820891);
#840=CARTESIAN_POINT('',(7.85,18.3,0.));
#850=DIRECTION('',(0.220404803077086,0.975408490213485,0.));
#860=VECTOR('',#850,35.6162837216142);
#870=LINE('',#840,#860);
#880=CARTESIAN_POINT('',(7.85555673538445,18.3245915097865,0.));
#890=VERTEX_POINT('',#880);
#900=EDGE_CURVE('',#660,#890,#870,.T.);
#910=ORIENTED_EDGE('',*,*,#900,.T.);
#920=EDGE_CURVE('',#660,#470,#730,.T.);
#930=ORIENTED_EDGE('',*,*,#920,.F.);
#940=CARTESIAN_POINT('',(-7.85,18.3,-9.61347737330672E-16));
#950=DIRECTION('',(-0.220404803077086,0.975408490213485,
-2.69918036605056E-17));
#960=VECTOR('',#950,35.6162837216142);
#970=LINE('',#940,#960);
#980=CARTESIAN_POINT('',(-7.85555673538445,18.3245915097865,
-9.620282411509E-16));
#990=VERTEX_POINT('',#980);
#1000=EDGE_CURVE('',#470,#990,#970,.T.);
#1010=ORIENTED_EDGE('',*,*,#1000,.F.);
#1020=CARTESIAN_POINT('',(0.,18.3245915097865,0.));
#1030=DIRECTION('',(0.,1.,0.));
#1040=DIRECTION('',(1.,0.,0.));
#1050=AXIS2_PLACEMENT_3D('',#1020,#1030,#1040);
#1060=CIRCLE('',#1050,7.85555673538445);
#1070=EDGE_CURVE('',#990,#890,#1060,.T.);
#1080=ORIENTED_EDGE('',*,*,#1070,.F.);
#1090=EDGE_LOOP('',(#1080,#1010,#930,#910));
#1100=FACE_OUTER_BOUND('',#1090,.T.);
#1110=ADVANCED_FACE('',(#1100),#830,.T.);
#1120=CARTESIAN_POINT('',(3.425,19.3,0.));
#1130=DIRECTION('',(-0.,-1.,-0.));
#1140=DIRECTION('',(-1.,0.,0.));
#1150=AXIS2_PLACEMENT_3D('',#1120,#1130,#1140);
#1160=PLANE('',#1150);
#1170=CARTESIAN_POINT('',(0.,19.3,0.));
#1180=DIRECTION('',(0.,1.,0.));
#1190=DIRECTION('',(1.,0.,0.));
#1200=AXIS2_PLACEMENT_3D('',#1170,#1180,#1190);
#1210=CIRCLE('',#1200,7.07596153846154);
#1220=CARTESIAN_POINT('',(7.07596153846154,19.3,-8.6655536489667E-16));
#1230=VERTEX_POINT('',#1220);
#1240=CARTESIAN_POINT('',(-7.07596153846154,19.3,0.));
#1250=VERTEX_POINT('',#1240);
#1260=EDGE_CURVE('',#1230,#1250,#1210,.T.);
#1270=ORIENTED_EDGE('',*,*,#1260,.T.);
#1280=EDGE_CURVE('',#1250,#1230,#1210,.T.);
#1290=ORIENTED_EDGE('',*,*,#1280,.T.);
#1300=EDGE_LOOP('',(#1290,#1270));
#1310=FACE_OUTER_BOUND('',#1300,.T.);
#1320=ADVANCED_FACE('',(#1310),#1160,.F.);
#1330=CARTESIAN_POINT('',(0.,19.3,0.));
#1340=DIRECTION('',(0.,-1.,0.));
#1350=DIRECTION('',(-1.,0.,0.));
#1360=AXIS2_PLACEMENT_3D('',#1330,#1340,#1350);
#1370=CONICAL_SURFACE('',#1360,7.07596153846154,0.674283433487003);
#1380=CARTESIAN_POINT('',(7.07596153846154,19.3,-8.6655536489667E-16));
#1390=DIRECTION('',(0.624337727885683,-0.781154531151515,
-7.64593200042133E-17));
#1400=VECTOR('',#1390,11.3335478898965);
#1410=LINE('',#1380,#1400);
#1420=EDGE_CURVE('',#1230,#890,#1410,.T.);
#1430=ORIENTED_EDGE('',*,*,#1420,.F.);
#1440=ORIENTED_EDGE('',*,*,#1070,.T.);
#1450=CARTESIAN_POINT('',(-7.07596153846154,19.3,0.));
#1460=DIRECTION('',(-0.624337727885683,-0.781154531151515,0.));
#1470=VECTOR('',#1460,11.3335478898965);
#1480=LINE('',#1450,#1470);
#1490=EDGE_CURVE('',#1250,#990,#1480,.T.);
#1500=ORIENTED_EDGE('',*,*,#1490,.T.);
#1510=ORIENTED_EDGE('',*,*,#1280,.F.);
#1520=EDGE_LOOP('',(#1510,#1500,#1440,#1430));
#1530=FACE_OUTER_BOUND('',#1520,.T.);
#1540=ADVANCED_FACE('',(#1530),#1370,.T.);
#1550=CARTESIAN_POINT('',(0.,0.,0.));
#1560=DIRECTION('',(0.,1.,0.));
#1570=DIRECTION('',(1.,0.,0.));
#1580=AXIS2_PLACEMENT_3D('',#1550,#1560,#1570);
#1590=CONICAL_SURFACE('',#1580,5.,0.785398163397448);
#1600=CARTESIAN_POINT('',(5.,0.,0.));
#1610=DIRECTION('',(0.707106781186548,0.707106781186548,0.));
#1620=VECTOR('',#1610,7.07106781186547);
#1630=LINE('',#1600,#1620);
#1640=EDGE_CURVE('',#270,#580,#1630,.T.);
#1650=ORIENTED_EDGE('',*,*,#1640,.F.);
#1660=ORIENTED_EDGE('',*,*,#590,.T.);
#1670=CARTESIAN_POINT('',(-5.,0.,-6.12323399573677E-16));
#1680=DIRECTION('',(-0.707106781186548,0.707106781186548,
-8.65956056235493E-17));
#1690=VECTOR('',#1680,7.07106781186547);
#1700=LINE('',#1670,#1690);
#1710=EDGE_CURVE('',#290,#490,#1700,.T.);
#1720=ORIENTED_EDGE('',*,*,#1710,.T.);
#1730=ORIENTED_EDGE('',*,*,#320,.F.);
#1740=EDGE_LOOP('',(#1730,#1720,#1660,#1650));
#1750=FACE_OUTER_BOUND('',#1740,.T.);
#1760=ADVANCED_FACE('',(#1750),#1590,.T.);
#1770=CARTESIAN_POINT('',(0.,3.5,0.));
#1780=DIRECTION('',(0.,-1.,0.));
#1790=DIRECTION('',(1.,0.,0.));
#1800=AXIS2_PLACEMENT_3D('',#1770,#1780,#1790);
#1810=CYLINDRICAL_SURFACE('',#1800,1.65);
#1820=CARTESIAN_POINT('',(-1.65,3.5,2.02066721859313E-16));
#1830=DIRECTION('',(0.,-1.,0.));
#1840=VECTOR('',#1830,1.);
#1850=LINE('',#1820,#1840);
#1860=CARTESIAN_POINT('',(-1.65,7.,2.02066721859313E-16));
#1870=VERTEX_POINT('',#1860);
#1880=CARTESIAN_POINT('',(-1.65,0.85,2.02066721859313E-16));
#1890=VERTEX_POINT('',#1880);
#1900=EDGE_CURVE('',#1870,#1890,#1850,.T.);
#1910=ORIENTED_EDGE('',*,*,#1900,.T.);
#1920=CARTESIAN_POINT('',(0.,7.,0.));
#1930=DIRECTION('',(0.,1.,0.));
#1940=DIRECTION('',(1.,0.,0.));
#1950=AXIS2_PLACEMENT_3D('',#1920,#1930,#1940);
#1960=CIRCLE('',#1950,1.65);
#1970=CARTESIAN_POINT('',(1.65,7.,0.));
#1980=VERTEX_POINT('',#1970);
#1990=EDGE_CURVE('',#1980,#1870,#1960,.T.);
#2000=ORIENTED_EDGE('',*,*,#1990,.T.);
#2010=CARTESIAN_POINT('',(1.65,3.5,0.));
#2020=DIRECTION('',(0.,-1.,0.));
#2030=VECTOR('',#2020,1.);
#2040=LINE('',#2010,#2030);
#2050=CARTESIAN_POINT('',(1.65,0.850000000000001,0.));
#2060=VERTEX_POINT('',#2050);
#2070=EDGE_CURVE('',#1980,#2060,#2040,.T.);
#2080=ORIENTED_EDGE('',*,*,#2070,.F.);
#2090=CARTESIAN_POINT('',(0.,0.85,0.));
#2100=DIRECTION('',(0.,-1.,0.));
#2110=DIRECTION('',(-1.,0.,0.));
#2120=AXIS2_PLACEMENT_3D('',#2090,#2100,#2110);
#2130=CIRCLE('',#2120,1.65);
#2140=EDGE_CURVE('',#1890,#2060,#2130,.T.);
#2150=ORIENTED_EDGE('',*,*,#2140,.T.);
#2160=EDGE_LOOP('',(#2150,#2080,#2000,#1910));
#2170=FACE_OUTER_BOUND('',#2160,.T.);
#2180=ADVANCED_FACE('M4_69735',(#2170),#1810,.F.);
#2190=COLOUR_RGB('',1.,0.,0.);
#2200=FILL_AREA_STYLE_COLOUR('',#2190);
#2210=FILL_AREA_STYLE('',(#2200));
#2220=SURFACE_STYLE_FILL_AREA(#2210);
#2230=SURFACE_SIDE_STYLE('',(#2220));
#2240=SURFACE_STYLE_USAGE(.BOTH.,#2230);
#2250=PRESENTATION_STYLE_ASSIGNMENT((#2240));
#2260=CARTESIAN_POINT('',(1.6425,7.,0.));
#2270=DIRECTION('',(0.,-1.,0.));
#2280=DIRECTION('',(1.,0.,0.));
#2290=AXIS2_PLACEMENT_3D('',#2260,#2270,#2280);
#2300=PLANE('',#2290);
#2310=ORIENTED_EDGE('',*,*,#1990,.F.);
#2320=EDGE_CURVE('',#1870,#1980,#1960,.T.);
#2330=ORIENTED_EDGE('',*,*,#2320,.F.);
#2340=EDGE_LOOP('',(#2330,#2310));
#2350=FACE_OUTER_BOUND('',#2340,.T.);
#2360=CARTESIAN_POINT('',(0.,7.,0.));
#2370=DIRECTION('',(0.,1.,0.));
#2380=DIRECTION('',(1.,0.,0.));
#2390=AXIS2_PLACEMENT_3D('',#2360,#2370,#2380);
#2400=CIRCLE('',#2390,1.635);
#2410=CARTESIAN_POINT('',(1.635,7.,0.));
#2420=VERTEX_POINT('',#2410);
#2430=CARTESIAN_POINT('',(-1.635,7.,2.00229751660592E-16));
#2440=VERTEX_POINT('',#2430);
#2450=EDGE_CURVE('',#2420,#2440,#2400,.T.);
#2460=ORIENTED_EDGE('',*,*,#2450,.T.);
#2470=EDGE_CURVE('',#2440,#2420,#2400,.T.);
#2480=ORIENTED_EDGE('',*,*,#2470,.T.);
#2490=EDGE_LOOP('',(#2480,#2460));
#2500=FACE_BOUND('',#2490,.T.);
#2510=ADVANCED_FACE('',(#2350,#2500),#2300,.T.);
#2520=CARTESIAN_POINT('',(0.,8.5,0.));
#2530=DIRECTION('',(0.,-1.,0.));
#2540=DIRECTION('',(1.,0.,0.));
#2550=AXIS2_PLACEMENT_3D('',#2520,#2530,#2540);
#2560=CYLINDRICAL_SURFACE('',#2550,1.635);
#2570=CARTESIAN_POINT('',(1.635,8.5,0.));
#2580=DIRECTION('',(0.,-1.,0.));
#2590=VECTOR('',#2580,1.);
#2600=LINE('',#2570,#2590);
#2610=CARTESIAN_POINT('',(1.635,10.,0.));
#2620=VERTEX_POINT('',#2610);
#2630=EDGE_CURVE('',#2620,#2420,#2600,.T.);
#2640=ORIENTED_EDGE('',*,*,#2630,.T.);
#2650=CARTESIAN_POINT('',(0.,10.,0.));
#2660=DIRECTION('',(0.,1.,0.));
#2670=DIRECTION('',(1.,0.,0.));
#2680=AXIS2_PLACEMENT_3D('',#2650,#2660,#2670);
#2690=CIRCLE('',#2680,1.635);
#2700=CARTESIAN_POINT('',(-1.635,10.,2.00229751660592E-16));
#2710=VERTEX_POINT('',#2700);
#2720=EDGE_CURVE('',#2710,#2620,#2690,.T.);
#2730=ORIENTED_EDGE('',*,*,#2720,.T.);
#2740=CARTESIAN_POINT('',(-1.635,8.5,2.00229751660592E-16));
#2750=DIRECTION('',(0.,-1.,0.));
#2760=VECTOR('',#2750,1.);
#2770=LINE('',#2740,#2760);
#2780=EDGE_CURVE('',#2710,#2440,#2770,.T.);
#2790=ORIENTED_EDGE('',*,*,#2780,.F.);
#2800=ORIENTED_EDGE('',*,*,#2470,.F.);
#2810=EDGE_LOOP('',(#2800,#2790,#2730,#2640));
#2820=FACE_OUTER_BOUND('',#2810,.T.);
#2830=ADVANCED_FACE('',(#2820),#2560,.F.);
#2840=CARTESIAN_POINT('',(0.,10.,0.));
#2850=DIRECTION('',(0.,-1.,0.));
#2860=DIRECTION('',(1.,0.,0.));
#2870=AXIS2_PLACEMENT_3D('',#2840,#2850,#2860);
#2880=CONICAL_SURFACE('',#2870,1.635,1.02974425867666);
#2890=CARTESIAN_POINT('',(1.635,10.,0.));
#2900=DIRECTION('',(0.857167300702113,-0.515038074910054,0.));
#2910=VECTOR('',#2900,1.90744560444706);
#2920=LINE('',#2890,#2910);
#2930=CARTESIAN_POINT('',(-2.22044604925031E-16,10.9824071121101,
2.46519032881566E-32));
#2940=VERTEX_POINT('',#2930);
#2950=EDGE_CURVE('',#2940,#2620,#2920,.T.);
#2960=ORIENTED_EDGE('',*,*,#2950,.T.);
#2970=CARTESIAN_POINT('',(-1.635,10.,2.00229751660592E-16));
#2980=DIRECTION('',(-0.857167300702113,-0.515038074910054,
1.04972719113862E-16));
#2990=VECTOR('',#2980,1.90744560444706);
#3000=LINE('',#2970,#2990);
#3010=EDGE_CURVE('',#2940,#2710,#3000,.T.);
#3020=ORIENTED_EDGE('',*,*,#3010,.F.);
#3030=ORIENTED_EDGE('',*,*,#2720,.F.);
#3040=EDGE_LOOP('',(#3030,#3020,#2960));
#3050=FACE_OUTER_BOUND('',#3040,.T.);
#3060=ADVANCED_FACE('',(#3050),#2880,.F.);
#3070=CARTESIAN_POINT('',(0.,0.85,0.));
#3080=DIRECTION('',(0.,-1.,0.));
#3090=DIRECTION('',(-1.,0.,0.));
#3100=AXIS2_PLACEMENT_3D('',#3070,#3080,#3090);
#3110=CONICAL_SURFACE('',#3100,1.65,0.785398163397448);
#3120=CARTESIAN_POINT('',(1.65,0.85,-2.02066721859313E-16));
#3130=DIRECTION('',(0.707106781186548,-0.707106781186548,
-8.65956056235493E-17));
#3140=VECTOR('',#3130,2.33345237791561);
#3150=LINE('',#3120,#3140);
#3160=EDGE_CURVE('',#2060,#120,#3150,.T.);
#3170=ORIENTED_EDGE('',*,*,#3160,.F.);
#3180=ORIENTED_EDGE('',*,*,#170,.T.);
#3190=CARTESIAN_POINT('',(-1.65,0.85,0.));
#3200=DIRECTION('',(-0.707106781186548,-0.707106781186548,0.));
#3210=VECTOR('',#3200,2.33345237791561);
#3220=LINE('',#3190,#3210);
#3230=EDGE_CURVE('',#1890,#140,#3220,.T.);
#3240=ORIENTED_EDGE('',*,*,#3230,.T.);
#3250=ORIENTED_EDGE('',*,*,#2140,.F.);
#3260=EDGE_LOOP('',(#3250,#3240,#3180,#3170));
#3270=FACE_OUTER_BOUND('',#3260,.T.);
#3280=ADVANCED_FACE('',(#3270),#3110,.F.);
#3290=CARTESIAN_POINT('',(0.,8.5,0.));
#3300=DIRECTION('',(0.,-1.,0.));
#3310=DIRECTION('',(1.,0.,0.));
#3320=AXIS2_PLACEMENT_3D('',#3290,#3300,#3310);
#3330=CYLINDRICAL_SURFACE('',#3320,1.635);
#3340=ORIENTED_EDGE('',*,*,#2450,.F.);
#3350=ORIENTED_EDGE('',*,*,#2780,.T.);
#3360=EDGE_CURVE('',#2620,#2710,#2690,.T.);
#3370=ORIENTED_EDGE('',*,*,#3360,.T.);
#3380=ORIENTED_EDGE('',*,*,#2630,.F.);
#3390=EDGE_LOOP('',(#3380,#3370,#3350,#3340));
#3400=FACE_OUTER_BOUND('',#3390,.T.);
#3410=ADVANCED_FACE('',(#3400),#3330,.F.);
#3420=CARTESIAN_POINT('',(0.,10.,0.));
#3430=DIRECTION('',(0.,-1.,0.));
#3440=DIRECTION('',(1.,0.,0.));
#3450=AXIS2_PLACEMENT_3D('',#3420,#3430,#3440);
#3460=CONICAL_SURFACE('',#3450,1.635,1.02974425867666);
#3470=ORIENTED_EDGE('',*,*,#2950,.F.);
#3480=ORIENTED_EDGE('',*,*,#3360,.F.);
#3490=ORIENTED_EDGE('',*,*,#3010,.T.);
#3500=EDGE_LOOP('',(#3490,#3480,#3470));
#3510=FACE_OUTER_BOUND('',#3500,.T.);
#3520=ADVANCED_FACE('',(#3510),#3460,.F.);
#3530=CARTESIAN_POINT('',(0.,3.5,0.));
#3540=DIRECTION('',(0.,-1.,0.));
#3550=DIRECTION('',(1.,0.,0.));
#3560=AXIS2_PLACEMENT_3D('',#3530,#3540,#3550);
#3570=CYLINDRICAL_SURFACE('',#3560,1.65);
#3580=ORIENTED_EDGE('',*,*,#1900,.F.);
#3590=EDGE_CURVE('',#2060,#1890,#2130,.T.);
#3600=ORIENTED_EDGE('',*,*,#3590,.T.);
#3610=ORIENTED_EDGE('',*,*,#2070,.T.);
#3620=ORIENTED_EDGE('',*,*,#2320,.T.);
#3630=EDGE_LOOP('',(#3620,#3610,#3600,#3580));
#3640=FACE_OUTER_BOUND('',#3630,.T.);
#3650=ADVANCED_FACE('',(#3640),#3570,.F.);
#3660=COLOUR_RGB('',1.,0.,0.);
#3670=FILL_AREA_STYLE_COLOUR('',#3660);
#3680=FILL_AREA_STYLE('',(#3670));
#3690=SURFACE_STYLE_FILL_AREA(#3680);
#3700=SURFACE_SIDE_STYLE('',(#3690));
#3710=SURFACE_STYLE_USAGE(.BOTH.,#3700);
#3720=PRESENTATION_STYLE_ASSIGNMENT((#3710));
#3730=CARTESIAN_POINT('',(0.,18.3,0.));
#3740=DIRECTION('',(0.,1.,0.));
#3750=DIRECTION('',(1.,0.,0.));
#3760=AXIS2_PLACEMENT_3D('',#3730,#3740,#3750);
#3770=CONICAL_SURFACE('',#3760,7.85,0.222229459820891);
#3780=ORIENTED_EDGE('',*,*,#900,.F.);
#3790=EDGE_CURVE('',#890,#990,#1060,.T.);
#3800=ORIENTED_EDGE('',*,*,#3790,.F.);
#3810=ORIENTED_EDGE('',*,*,#1000,.T.);
#3820=ORIENTED_EDGE('',*,*,#740,.F.);
#3830=EDGE_LOOP('',(#3820,#3810,#3800,#3780));
#3840=FACE_OUTER_BOUND('',#3830,.T.);
#3850=ADVANCED_FACE('',(#3840),#3770,.T.);
#3860=CARTESIAN_POINT('',(0.,0.,0.));
#3870=DIRECTION('',(0.,1.,0.));
#3880=DIRECTION('',(1.,0.,0.));
#3890=AXIS2_PLACEMENT_3D('',#3860,#3870,#3880);
#3900=CONICAL_SURFACE('',#3890,5.,0.785398163397448);
#3910=ORIENTED_EDGE('',*,*,#300,.F.);
#3920=ORIENTED_EDGE('',*,*,#1710,.F.);
#3930=EDGE_CURVE('',#580,#490,#560,.T.);
#3940=ORIENTED_EDGE('',*,*,#3930,.T.);
#3950=ORIENTED_EDGE('',*,*,#1640,.T.);
#3960=EDGE_LOOP('',(#3950,#3940,#3920,#3910));
#3970=FACE_OUTER_BOUND('',#3960,.T.);
#3980=ADVANCED_FACE('',(#3970),#3900,.T.);
#3990=CARTESIAN_POINT('',(0.,19.3,0.));
#4000=DIRECTION('',(0.,-1.,0.));
#4010=DIRECTION('',(-1.,0.,0.));
#4020=AXIS2_PLACEMENT_3D('',#3990,#4000,#4010);
#4030=CONICAL_SURFACE('',#4020,7.07596153846154,0.674283433487003);
#4040=ORIENTED_EDGE('',*,*,#3790,.T.);
#4050=ORIENTED_EDGE('',*,*,#1420,.T.);
#4060=ORIENTED_EDGE('',*,*,#1260,.F.);
#4070=ORIENTED_EDGE('',*,*,#1490,.F.);
#4080=EDGE_LOOP('',(#4070,#4060,#4050,#4040));
#4090=FACE_OUTER_BOUND('',#4080,.T.);
#4100=ADVANCED_FACE('',(#4090),#4030,.T.);
#4110=CARTESIAN_POINT('',(0.,0.85,0.));
#4120=DIRECTION('',(0.,-1.,0.));
#4130=DIRECTION('',(-1.,0.,0.));
#4140=AXIS2_PLACEMENT_3D('',#4110,#4120,#4130);
#4150=CONICAL_SURFACE('',#4140,1.65,0.785398163397448);
#4160=ORIENTED_EDGE('',*,*,#150,.T.);
#4170=ORIENTED_EDGE('',*,*,#3160,.T.);
#4180=ORIENTED_EDGE('',*,*,#3590,.F.);
#4190=ORIENTED_EDGE('',*,*,#3230,.F.);
#4200=EDGE_LOOP('',(#4190,#4180,#4170,#4160));
#4210=FACE_OUTER_BOUND('',#4200,.T.);
#4220=ADVANCED_FACE('',(#4210),#4150,.F.);
#4230=CARTESIAN_POINT('',(0.,3.95,0.));
#4240=DIRECTION('',(0.,-1.,0.));
#4250=DIRECTION('',(-1.,0.,0.));
#4260=AXIS2_PLACEMENT_3D('',#4230,#4240,#4250);
#4270=CYLINDRICAL_SURFACE('',#4260,5.5);
#4280=ORIENTED_EDGE('',*,*,#920,.T.);
#4290=ORIENTED_EDGE('',*,*,#670,.F.);
#4300=ORIENTED_EDGE('',*,*,#3930,.F.);
#4310=ORIENTED_EDGE('',*,*,#500,.T.);
#4320=EDGE_LOOP('',(#4310,#4300,#4290,#4280));
#4330=FACE_OUTER_BOUND('',#4320,.T.);
#4340=ADVANCED_FACE('',(#4330),#4270,.T.);
#4350=CLOSED_SHELL('',(#360,#780,#1110,#1320,#1540,#1760,#2180,#2510,
#2830,#3060,#3280,#3410,#3520,#3650,#3850,#3980,#4100,#4220,#4340));
#4360=MANIFOLD_SOLID_BREP('',#4350);
#4370=CARTESIAN_POINT('',(0.,0.,0.));
#4380=DIRECTION('',(0.,0.,1.));
#4390=DIRECTION('',(1.,0.,0.));
#4400=AXIS2_PLACEMENT_3D('',#4370,#4380,#4390);
#4410=APPLICATION_CONTEXT(' ');
#4420=APPLICATION_PROTOCOL_DEFINITION(' ','automotive_design',1998,#4410
);
#4430=PRODUCT_CONTEXT('',#4410,'mechanical');
#4440=PRODUCT_DEFINITION_CONTEXT('part definition',#4410,'design');
#4450=PRODUCT('NI-10220','NI-10220','',(#4430));
#4460=PRODUCT_RELATED_PRODUCT_CATEGORY('part',' ',(#4450));
#4470=PRODUCT_DEFINITION_FORMATION_WITH_SPECIFIED_SOURCE('','',#4450,
.BOUGHT.);
#4480=PRODUCT_DEFINITION('',' ',#4470,#4440);
#4490=PRODUCT_DEFINITION_SHAPE('','',#4480);
#4500=DIMENSIONAL_EXPONENTS(1.,0.,0.,0.,0.,0.,0.);
#4510=DIMENSIONAL_EXPONENTS(0.,0.,0.,0.,0.,0.,0.);
#4520=DIMENSIONAL_EXPONENTS(0.,0.,0.,0.,0.,0.,0.);
#4530=(LENGTH_UNIT() NAMED_UNIT(*) SI_UNIT(.MILLI.,.METRE.));
#4540=(NAMED_UNIT(*) PLANE_ANGLE_UNIT() SI_UNIT($,.RADIAN.));
#4550=(NAMED_UNIT(*) SI_UNIT($,.STERADIAN.) SOLID_ANGLE_UNIT());
#4560=(GEOMETRIC_REPRESENTATION_CONTEXT(3) 
GLOBAL_UNCERTAINTY_ASSIGNED_CONTEXT((#4570)) 
GLOBAL_UNIT_ASSIGNED_CONTEXT((#4530,#4540,#4550)) REPRESENTATION_CONTEXT
('',''));
#4570=UNCERTAINTY_MEASURE_WITH_UNIT(LENGTH_MEASURE(1.E-6),#4530,
'distance_accuracy_value','maximum gap value');
#4580=ADVANCED_BREP_SHAPE_REPRESENTATION('',(#4400,#4360),#4560);
#4590=SHAPE_DEFINITION_REPRESENTATION(#4490,#4580);
#4600=COLOUR_RGB('',0.600000023841858,0.600000023841858,
0.600000023841858);
#4610=FILL_AREA_STYLE_COLOUR('',#4600);
#4620=FILL_AREA_STYLE('',(#4610));
#4630=SURFACE_STYLE_FILL_AREA(#4620);
#4640=SURFACE_SIDE_STYLE('',(#4630));
#4650=SURFACE_STYLE_USAGE(.BOTH.,#4640);
#4660=PRESENTATION_STYLE_ASSIGNMENT((#4650));
#4670=STYLED_ITEM('',(#4660),#4360);
#4680=OVER_RIDING_STYLED_ITEM('',(#2250),#2180,#4670);
#4690=OVER_RIDING_STYLED_ITEM('',(#3720),#3650,#4670);
#4700=DRAUGHTING_MODEL('',(#4670,#4680,#4690),#4560);
ENDSEC;
END-ISO-10303-21;
