ISO-10303-21;
HEADER;
FILE_DESCRIPTION(('Creo Elements/Direct Modeling STEP Export'),'2;1');
FILE_NAME('2037-24.stp','2020-10-08T13:07:50',(''),(''),
'Creo Elements/Direct Modeling STEP processor for AP214 (Solid Model)',
'Creo Elements/Direct Modeling 20.0  12-Nov-2016 (C) Parametric Technolo
gy GmbH','');
FILE_SCHEMA(('AUTOMOTIVE_DESIGN { 1 0 10303 214 1 1 1 1 }'));
ENDSEC;
DATA;
#10=CARTESIAN_POINT('',(2.5,0.,0.));
#20=DIRECTION('',(-0.,-1.,-0.));
#30=DIRECTION('',(-1.,0.,0.));
#40=AXIS2_PLACEMENT_3D('',#10,#20,#30);
#50=PLANE('',#40);
#60=CARTESIAN_POINT('',(0.,0.,0.));
#70=DIRECTION('',(0.,1.,0.));
#80=DIRECTION('',(1.,0.,0.));
#90=AXIS2_PLACEMENT_3D('',#60,#70,#80);
#100=CIRCLE('',#90,5.);
#110=CARTESIAN_POINT('',(5.,-2.14469978715547E-15,0.));
#120=VERTEX_POINT('',#110);
#130=CARTESIAN_POINT('',(-5.,-2.14469978715547E-15,0.));
#140=VERTEX_POINT('',#130);
#150=EDGE_CURVE('',#120,#140,#100,.T.);
#160=ORIENTED_EDGE('',*,*,#150,.F.);
#170=EDGE_CURVE('',#140,#120,#100,.T.);
#180=ORIENTED_EDGE('',*,*,#170,.F.);
#190=EDGE_LOOP('',(#180,#160));
#200=FACE_OUTER_BOUND('',#190,.T.);
#210=CARTESIAN_POINT('',(0.,0.,0.));
#220=DIRECTION('',(0.,-1.,0.));
#230=DIRECTION('',(1.,0.,0.));
#240=AXIS2_PLACEMENT_3D('',#210,#220,#230);
#250=CIRCLE('',#240,1.65);
#260=CARTESIAN_POINT('',(1.65,0.,0.));
#270=VERTEX_POINT('',#260);
#280=CARTESIAN_POINT('',(-1.65,0.,2.02066721859313E-16));
#290=VERTEX_POINT('',#280);
#300=EDGE_CURVE('',#270,#290,#250,.T.);
#310=ORIENTED_EDGE('',*,*,#300,.F.);
#320=EDGE_CURVE('',#290,#270,#250,.T.);
#330=ORIENTED_EDGE('',*,*,#320,.F.);
#340=EDGE_LOOP('',(#330,#310));
#350=FACE_BOUND('',#340,.T.);
#360=ADVANCED_FACE('',(#200,#350),#50,.T.);
#370=CARTESIAN_POINT('',(8.88178419700125E-16,-3.93297849777226,0.));
#380=DIRECTION('',(0.,1.,0.));
#390=DIRECTION('',(1.,0.,0.));
#400=AXIS2_PLACEMENT_3D('',#370,#380,#390);
#410=SPHERICAL_SURFACE('',#400,28.0936164948019);
#420=CARTESIAN_POINT('',(8.88178419700125E-16,-3.93297849777226,0.));
#430=DIRECTION('',(0.,0.,-1.));
#440=DIRECTION('',(1.,-0.,0.));
#450=AXIS2_PLACEMENT_3D('',#420,#430,#440);
#460=CIRCLE('',#450,28.0936164948019);
#470=CARTESIAN_POINT('',(2.49999999999998,24.0491816718252,0.));
#480=VERTEX_POINT('',#470);
#490=CARTESIAN_POINT('',(11.0922473915151,21.8781302649763,0.));
#500=VERTEX_POINT('',#490);
#510=EDGE_CURVE('',#480,#500,#460,.T.);
#520=ORIENTED_EDGE('',*,*,#510,.F.);
#530=CARTESIAN_POINT('',(0.,21.8781302649763,0.));
#540=DIRECTION('',(0.,1.,0.));
#550=DIRECTION('',(1.,0.,0.));
#560=AXIS2_PLACEMENT_3D('',#530,#540,#550);
#570=CIRCLE('',#560,11.0922473915151);
#580=CARTESIAN_POINT('',(-11.0922473915151,21.8781302649762,0.));
#590=VERTEX_POINT('',#580);
#600=EDGE_CURVE('',#590,#500,#570,.T.);
#610=ORIENTED_EDGE('',*,*,#600,.T.);
#620=CARTESIAN_POINT('',(-2.49999999999999,24.0491816718252,0.));
#630=VERTEX_POINT('',#620);
#640=EDGE_CURVE('',#590,#630,#460,.T.);
#650=ORIENTED_EDGE('',*,*,#640,.F.);
#660=CARTESIAN_POINT('',(6.21724893790088E-15,24.0491816718252,0.));
#670=DIRECTION('',(-9.52226433896045E-17,-1.,0.));
#680=DIRECTION('',(-1.,0.,0.));
#690=AXIS2_PLACEMENT_3D('',#660,#670,#680);
#700=CIRCLE('',#690,2.5);
#710=EDGE_CURVE('',#480,#630,#700,.T.);
#720=ORIENTED_EDGE('',*,*,#710,.T.);
#730=EDGE_LOOP('',(#720,#650,#610,#520));
#740=FACE_OUTER_BOUND('',#730,.T.);
#750=ADVANCED_FACE('',(#740),#410,.T.);
#760=CARTESIAN_POINT('',(0.,12.,0.));
#770=DIRECTION('',(0.,-1.,0.));
#780=DIRECTION('',(1.,0.,0.));
#790=AXIS2_PLACEMENT_3D('',#760,#770,#780);
#800=CONICAL_SURFACE('',#790,1.635,1.02974425867666);
#810=CARTESIAN_POINT('',(1.635,12.,0.));
#820=DIRECTION('',(0.857167300702113,-0.515038074910054,0.));
#830=VECTOR('',#820,1.90744560444706);
#840=LINE('',#810,#830);
#850=CARTESIAN_POINT('',(-2.22044604925031E-16,12.9824071121101,
2.46519032881566E-32));
#860=VERTEX_POINT('',#850);
#870=CARTESIAN_POINT('',(1.635,12.,0.));
#880=VERTEX_POINT('',#870);
#890=EDGE_CURVE('',#860,#880,#840,.T.);
#900=ORIENTED_EDGE('',*,*,#890,.T.);
#910=CARTESIAN_POINT('',(-1.635,12.,2.00229751660592E-16));
#920=DIRECTION('',(-0.857167300702113,-0.515038074910054,
1.04972719113862E-16));
#930=VECTOR('',#920,1.90744560444706);
#940=LINE('',#910,#930);
#950=CARTESIAN_POINT('',(-1.635,12.,2.00229751660592E-16));
#960=VERTEX_POINT('',#950);
#970=EDGE_CURVE('',#860,#960,#940,.T.);
#980=ORIENTED_EDGE('',*,*,#970,.F.);
#990=CARTESIAN_POINT('',(0.,12.,0.));
#1000=DIRECTION('',(0.,1.,0.));
#1010=DIRECTION('',(1.,0.,0.));
#1020=AXIS2_PLACEMENT_3D('',#990,#1000,#1010);
#1030=CIRCLE('',#1020,1.635);
#1040=EDGE_CURVE('',#960,#880,#1030,.T.);
#1050=ORIENTED_EDGE('',*,*,#1040,.F.);
#1060=EDGE_LOOP('',(#1050,#980,#900));
#1070=FACE_OUTER_BOUND('',#1060,.T.);
#1080=ADVANCED_FACE('',(#1070),#800,.F.);
#1090=CARTESIAN_POINT('',(0.,20.5,0.));
#1100=DIRECTION('',(0.,1.,0.));
#1110=DIRECTION('',(1.,0.,0.));
#1120=AXIS2_PLACEMENT_3D('',#1090,#1100,#1110);
#1130=TOROIDAL_SURFACE('',#1120,10.5,1.5);
#1140=CARTESIAN_POINT('',(-10.5,20.5,0.));
#1150=DIRECTION('',(0.,0.,1.));
#1160=DIRECTION('',(1.,0.,0.));
#1170=AXIS2_PLACEMENT_3D('',#1140,#1150,#1160);
#1180=CIRCLE('',#1170,1.5);
#1190=CARTESIAN_POINT('',(-11.6867341502397,19.582578582845,0.));
#1200=VERTEX_POINT('',#1190);
#1210=EDGE_CURVE('',#590,#1200,#1180,.T.);
#1220=ORIENTED_EDGE('',*,*,#1210,.T.);
#1230=ORIENTED_EDGE('',*,*,#600,.F.);
#1240=CARTESIAN_POINT('',(10.5,20.5,0.));
#1250=DIRECTION('',(0.,0.,-1.));
#1260=DIRECTION('',(-1.,0.,0.));
#1270=AXIS2_PLACEMENT_3D('',#1240,#1250,#1260);
#1280=CIRCLE('',#1270,1.5);
#1290=CARTESIAN_POINT('',(11.6867341502397,19.582578582845,0.));
#1300=VERTEX_POINT('',#1290);
#1310=EDGE_CURVE('',#500,#1300,#1280,.T.);
#1320=ORIENTED_EDGE('',*,*,#1310,.F.);
#1330=CARTESIAN_POINT('',(0.,19.582578582845,0.));
#1340=DIRECTION('',(0.,1.,0.));
#1350=DIRECTION('',(1.,0.,0.));
#1360=AXIS2_PLACEMENT_3D('',#1330,#1340,#1350);
#1370=CIRCLE('',#1360,11.6867341502397);
#1380=EDGE_CURVE('',#1200,#1300,#1370,.T.);
#1390=ORIENTED_EDGE('',*,*,#1380,.T.);
#1400=EDGE_LOOP('',(#1390,#1320,#1230,#1220));
#1410=FACE_OUTER_BOUND('',#1400,.T.);
#1420=ADVANCED_FACE('',(#1410),#1130,.T.);
#1430=CARTESIAN_POINT('',(0.,1.77635683940025E-15,0.));
#1440=DIRECTION('',(0.,1.,0.));
#1450=DIRECTION('',(1.,0.,0.));
#1460=AXIS2_PLACEMENT_3D('',#1430,#1440,#1450);
#1470=TOROIDAL_SURFACE('',#1460,37.0178571428571,32.0178571428571);
#1480=CARTESIAN_POINT('',(-37.0178571428571,1.77635683940025E-15,0.));
#1490=DIRECTION('',(0.,0.,1.));
#1500=DIRECTION('',(-1.,0.,0.));
#1510=AXIS2_PLACEMENT_3D('',#1480,#1490,#1500);
#1520=CIRCLE('',#1510,32.0178571428571);
#1530=EDGE_CURVE('',#140,#1200,#1520,.T.);
#1540=ORIENTED_EDGE('',*,*,#1530,.F.);
#1550=ORIENTED_EDGE('',*,*,#1380,.F.);
#1560=CARTESIAN_POINT('',(37.0178571428571,1.77635683940025E-15,0.));
#1570=DIRECTION('',(0.,0.,-1.));
#1580=DIRECTION('',(1.,0.,0.));
#1590=AXIS2_PLACEMENT_3D('',#1560,#1570,#1580);
#1600=CIRCLE('',#1590,32.0178571428571);
#1610=EDGE_CURVE('',#120,#1300,#1600,.T.);
#1620=ORIENTED_EDGE('',*,*,#1610,.T.);
#1630=ORIENTED_EDGE('',*,*,#170,.T.);
#1640=EDGE_LOOP('',(#1630,#1620,#1550,#1540));
#1650=FACE_OUTER_BOUND('',#1640,.T.);
#1660=ADVANCED_FACE('',(#1650),#1470,.F.);
#1670=CARTESIAN_POINT('',(0.,3.5,0.));
#1680=DIRECTION('',(0.,-1.,0.));
#1690=DIRECTION('',(1.,0.,0.));
#1700=AXIS2_PLACEMENT_3D('',#1670,#1680,#1690);
#1710=CYLINDRICAL_SURFACE('',#1700,1.65);
#1720=CARTESIAN_POINT('',(-1.65,3.5,2.02066721859313E-16));
#1730=DIRECTION('',(0.,-1.,0.));
#1740=VECTOR('',#1730,1.);
#1750=LINE('',#1720,#1740);
#1760=CARTESIAN_POINT('',(-1.65,7.,2.02066721859313E-16));
#1770=VERTEX_POINT('',#1760);
#1780=EDGE_CURVE('',#1770,#290,#1750,.T.);
#1790=ORIENTED_EDGE('',*,*,#1780,.T.);
#1800=CARTESIAN_POINT('',(0.,7.,0.));
#1810=DIRECTION('',(0.,1.,0.));
#1820=DIRECTION('',(1.,0.,0.));
#1830=AXIS2_PLACEMENT_3D('',#1800,#1810,#1820);
#1840=CIRCLE('',#1830,1.65);
#1850=CARTESIAN_POINT('',(1.65,7.,0.));
#1860=VERTEX_POINT('',#1850);
#1870=EDGE_CURVE('',#1860,#1770,#1840,.T.);
#1880=ORIENTED_EDGE('',*,*,#1870,.T.);
#1890=CARTESIAN_POINT('',(1.65,3.5,0.));
#1900=DIRECTION('',(0.,-1.,0.));
#1910=VECTOR('',#1900,1.);
#1920=LINE('',#1890,#1910);
#1930=EDGE_CURVE('',#1860,#270,#1920,.T.);
#1940=ORIENTED_EDGE('',*,*,#1930,.F.);
#1950=ORIENTED_EDGE('',*,*,#320,.T.);
#1960=EDGE_LOOP('',(#1950,#1940,#1880,#1790));
#1970=FACE_OUTER_BOUND('',#1960,.T.);
#1980=ADVANCED_FACE('M4-0.7_3766307',(#1970),#1710,.F.);
#1990=COLOUR_RGB('',1.,0.,0.);
#2000=FILL_AREA_STYLE_COLOUR('',#1990);
#2010=FILL_AREA_STYLE('',(#2000));
#2020=SURFACE_STYLE_FILL_AREA(#2010);
#2030=SURFACE_SIDE_STYLE('',(#2020));
#2040=SURFACE_STYLE_USAGE(.BOTH.,#2030);
#2050=PRESENTATION_STYLE_ASSIGNMENT((#2040));
#2060=CARTESIAN_POINT('',(1.6425,7.,0.));
#2070=DIRECTION('',(0.,-1.,0.));
#2080=DIRECTION('',(1.,0.,0.));
#2090=AXIS2_PLACEMENT_3D('',#2060,#2070,#2080);
#2100=PLANE('',#2090);
#2110=ORIENTED_EDGE('',*,*,#1870,.F.);
#2120=EDGE_CURVE('',#1770,#1860,#1840,.T.);
#2130=ORIENTED_EDGE('',*,*,#2120,.F.);
#2140=EDGE_LOOP('',(#2130,#2110));
#2150=FACE_OUTER_BOUND('',#2140,.T.);
#2160=CARTESIAN_POINT('',(0.,7.,0.));
#2170=DIRECTION('',(0.,1.,0.));
#2180=DIRECTION('',(1.,0.,0.));
#2190=AXIS2_PLACEMENT_3D('',#2160,#2170,#2180);
#2200=CIRCLE('',#2190,1.635);
#2210=CARTESIAN_POINT('',(1.635,7.,0.));
#2220=VERTEX_POINT('',#2210);
#2230=CARTESIAN_POINT('',(-1.635,7.,2.00229751660592E-16));
#2240=VERTEX_POINT('',#2230);
#2250=EDGE_CURVE('',#2220,#2240,#2200,.T.);
#2260=ORIENTED_EDGE('',*,*,#2250,.T.);
#2270=EDGE_CURVE('',#2240,#2220,#2200,.T.);
#2280=ORIENTED_EDGE('',*,*,#2270,.T.);
#2290=EDGE_LOOP('',(#2280,#2260));
#2300=FACE_BOUND('',#2290,.T.);
#2310=ADVANCED_FACE('',(#2150,#2300),#2100,.T.);
#2320=CARTESIAN_POINT('',(0.,9.5,0.));
#2330=DIRECTION('',(0.,-1.,0.));
#2340=DIRECTION('',(1.,0.,0.));
#2350=AXIS2_PLACEMENT_3D('',#2320,#2330,#2340);
#2360=CYLINDRICAL_SURFACE('',#2350,1.635);
#2370=CARTESIAN_POINT('',(1.635,9.5,0.));
#2380=DIRECTION('',(0.,-1.,0.));
#2390=VECTOR('',#2380,1.);
#2400=LINE('',#2370,#2390);
#2410=EDGE_CURVE('',#880,#2220,#2400,.T.);
#2420=ORIENTED_EDGE('',*,*,#2410,.T.);
#2430=ORIENTED_EDGE('',*,*,#1040,.T.);
#2440=CARTESIAN_POINT('',(-1.635,9.5,2.00229751660592E-16));
#2450=DIRECTION('',(0.,-1.,0.));
#2460=VECTOR('',#2450,1.);
#2470=LINE('',#2440,#2460);
#2480=EDGE_CURVE('',#960,#2240,#2470,.T.);
#2490=ORIENTED_EDGE('',*,*,#2480,.F.);
#2500=ORIENTED_EDGE('',*,*,#2270,.F.);
#2510=EDGE_LOOP('',(#2500,#2490,#2430,#2420));
#2520=FACE_OUTER_BOUND('',#2510,.T.);
#2530=ADVANCED_FACE('',(#2520),#2360,.F.);
#2540=CARTESIAN_POINT('',(6.21724893790088E-15,26.2606379970297,0.));
#2550=DIRECTION('',(0.,-1.,0.));
#2560=DIRECTION('',(-1.,0.,0.));
#2570=AXIS2_PLACEMENT_3D('',#2540,#2550,#2560);
#2580=CYLINDRICAL_SURFACE('',#2570,2.49999999999999);
#2590=CARTESIAN_POINT('',(-2.49999999999999,26.2606379970297,0.));
#2600=DIRECTION('',(0.,-1.,0.));
#2610=VECTOR('',#2600,1.);
#2620=LINE('',#2590,#2610);
#2630=CARTESIAN_POINT('',(-2.49999999999999,23.1606379970297,0.));
#2640=VERTEX_POINT('',#2630);
#2650=EDGE_CURVE('',#630,#2640,#2620,.T.);
#2660=ORIENTED_EDGE('',*,*,#2650,.F.);
#2670=CARTESIAN_POINT('',(6.21724893790088E-15,23.1606379970297,0.));
#2680=DIRECTION('',(0.,-1.,0.));
#2690=DIRECTION('',(1.,0.,0.));
#2700=AXIS2_PLACEMENT_3D('',#2670,#2680,#2690);
#2710=CIRCLE('',#2700,2.49999999999999);
#2720=CARTESIAN_POINT('',(2.5,23.1606379970297,-3.06161699786838E-16));
#2730=VERTEX_POINT('',#2720);
#2740=EDGE_CURVE('',#2730,#2640,#2710,.T.);
#2750=ORIENTED_EDGE('',*,*,#2740,.T.);
#2760=CARTESIAN_POINT('',(2.5,26.2606379970297,-3.06161699786838E-16));
#2770=DIRECTION('',(0.,-1.,0.));
#2780=VECTOR('',#2770,1.);
#2790=LINE('',#2760,#2780);
#2800=EDGE_CURVE('',#480,#2730,#2790,.T.);
#2810=ORIENTED_EDGE('',*,*,#2800,.T.);
#2820=ORIENTED_EDGE('',*,*,#710,.F.);
#2830=EDGE_LOOP('',(#2820,#2810,#2750,#2660));
#2840=FACE_OUTER_BOUND('',#2830,.T.);
#2850=ADVANCED_FACE('',(#2840),#2580,.F.);
#2860=CARTESIAN_POINT('',(1.25,23.1606379970297,0.));
#2870=DIRECTION('',(-0.,-1.,-0.));
#2880=DIRECTION('',(-1.,0.,0.));
#2890=AXIS2_PLACEMENT_3D('',#2860,#2870,#2880);
#2900=PLANE('',#2890);
#2910=ORIENTED_EDGE('',*,*,#2740,.F.);
#2920=EDGE_CURVE('',#2640,#2730,#2710,.T.);
#2930=ORIENTED_EDGE('',*,*,#2920,.F.);
#2940=EDGE_LOOP('',(#2930,#2910));
#2950=FACE_OUTER_BOUND('',#2940,.T.);
#2960=ADVANCED_FACE('',(#2950),#2900,.F.);
#2970=CARTESIAN_POINT('',(6.21724893790088E-15,26.2606379970297,0.));
#2980=DIRECTION('',(0.,-1.,0.));
#2990=DIRECTION('',(-1.,0.,0.));
#3000=AXIS2_PLACEMENT_3D('',#2970,#2980,#2990);
#3010=CYLINDRICAL_SURFACE('',#3000,2.49999999999999);
#3020=ORIENTED_EDGE('',*,*,#2650,.T.);
#3030=EDGE_CURVE('',#630,#480,#700,.T.);
#3040=ORIENTED_EDGE('',*,*,#3030,.F.);
#3050=ORIENTED_EDGE('',*,*,#2800,.F.);
#3060=ORIENTED_EDGE('',*,*,#2920,.T.);
#3070=EDGE_LOOP('',(#3060,#3050,#3040,#3020));
#3080=FACE_OUTER_BOUND('',#3070,.T.);
#3090=ADVANCED_FACE('',(#3080),#3010,.F.);
#3100=CARTESIAN_POINT('',(0.,12.,0.));
#3110=DIRECTION('',(0.,-1.,0.));
#3120=DIRECTION('',(1.,0.,0.));
#3130=AXIS2_PLACEMENT_3D('',#3100,#3110,#3120);
#3140=CONICAL_SURFACE('',#3130,1.635,1.02974425867666);
#3150=ORIENTED_EDGE('',*,*,#890,.F.);
#3160=EDGE_CURVE('',#880,#960,#1030,.T.);
#3170=ORIENTED_EDGE('',*,*,#3160,.F.);
#3180=ORIENTED_EDGE('',*,*,#970,.T.);
#3190=EDGE_LOOP('',(#3180,#3170,#3150));
#3200=FACE_OUTER_BOUND('',#3190,.T.);
#3210=ADVANCED_FACE('',(#3200),#3140,.F.);
#3220=CARTESIAN_POINT('',(0.,9.5,0.));
#3230=DIRECTION('',(0.,-1.,0.));
#3240=DIRECTION('',(1.,0.,0.));
#3250=AXIS2_PLACEMENT_3D('',#3220,#3230,#3240);
#3260=CYLINDRICAL_SURFACE('',#3250,1.635);
#3270=ORIENTED_EDGE('',*,*,#2250,.F.);
#3280=ORIENTED_EDGE('',*,*,#2480,.T.);
#3290=ORIENTED_EDGE('',*,*,#3160,.T.);
#3300=ORIENTED_EDGE('',*,*,#2410,.F.);
#3310=EDGE_LOOP('',(#3300,#3290,#3280,#3270));
#3320=FACE_OUTER_BOUND('',#3310,.T.);
#3330=ADVANCED_FACE('',(#3320),#3260,.F.);
#3340=CARTESIAN_POINT('',(0.,3.5,0.));
#3350=DIRECTION('',(0.,-1.,0.));
#3360=DIRECTION('',(1.,0.,0.));
#3370=AXIS2_PLACEMENT_3D('',#3340,#3350,#3360);
#3380=CYLINDRICAL_SURFACE('',#3370,1.65);
#3390=ORIENTED_EDGE('',*,*,#1780,.F.);
#3400=ORIENTED_EDGE('',*,*,#300,.T.);
#3410=ORIENTED_EDGE('',*,*,#1930,.T.);
#3420=ORIENTED_EDGE('',*,*,#2120,.T.);
#3430=EDGE_LOOP('',(#3420,#3410,#3400,#3390));
#3440=FACE_OUTER_BOUND('',#3430,.T.);
#3450=ADVANCED_FACE('',(#3440),#3380,.F.);
#3460=COLOUR_RGB('',1.,0.,0.);
#3470=FILL_AREA_STYLE_COLOUR('',#3460);
#3480=FILL_AREA_STYLE('',(#3470));
#3490=SURFACE_STYLE_FILL_AREA(#3480);
#3500=SURFACE_SIDE_STYLE('',(#3490));
#3510=SURFACE_STYLE_USAGE(.BOTH.,#3500);
#3520=PRESENTATION_STYLE_ASSIGNMENT((#3510));
#3530=CARTESIAN_POINT('',(0.,20.5,0.));
#3540=DIRECTION('',(0.,1.,0.));
#3550=DIRECTION('',(1.,0.,0.));
#3560=AXIS2_PLACEMENT_3D('',#3530,#3540,#3550);
#3570=TOROIDAL_SURFACE('',#3560,10.5,1.5);
#3580=EDGE_CURVE('',#500,#590,#570,.T.);
#3590=ORIENTED_EDGE('',*,*,#3580,.F.);
#3600=ORIENTED_EDGE('',*,*,#1210,.F.);
#3610=EDGE_CURVE('',#1300,#1200,#1370,.T.);
#3620=ORIENTED_EDGE('',*,*,#3610,.T.);
#3630=ORIENTED_EDGE('',*,*,#1310,.T.);
#3640=EDGE_LOOP('',(#3630,#3620,#3600,#3590));
#3650=FACE_OUTER_BOUND('',#3640,.T.);
#3660=ADVANCED_FACE('',(#3650),#3570,.T.);
#3670=CARTESIAN_POINT('',(0.,1.77635683940025E-15,0.));
#3680=DIRECTION('',(0.,1.,0.));
#3690=DIRECTION('',(1.,0.,0.));
#3700=AXIS2_PLACEMENT_3D('',#3670,#3680,#3690);
#3710=TOROIDAL_SURFACE('',#3700,37.0178571428571,32.0178571428571);
#3720=ORIENTED_EDGE('',*,*,#3610,.F.);
#3730=ORIENTED_EDGE('',*,*,#1530,.T.);
#3740=ORIENTED_EDGE('',*,*,#150,.T.);
#3750=ORIENTED_EDGE('',*,*,#1610,.F.);
#3760=EDGE_LOOP('',(#3750,#3740,#3730,#3720));
#3770=FACE_OUTER_BOUND('',#3760,.T.);
#3780=ADVANCED_FACE('',(#3770),#3710,.F.);
#3790=CARTESIAN_POINT('',(8.88178419700125E-16,-3.93297849777226,0.));
#3800=DIRECTION('',(0.,1.,0.));
#3810=DIRECTION('',(1.,0.,0.));
#3820=AXIS2_PLACEMENT_3D('',#3790,#3800,#3810);
#3830=SPHERICAL_SURFACE('',#3820,28.0936164948019);
#3840=ORIENTED_EDGE('',*,*,#3030,.T.);
#3850=ORIENTED_EDGE('',*,*,#640,.T.);
#3860=ORIENTED_EDGE('',*,*,#3580,.T.);
#3870=ORIENTED_EDGE('',*,*,#510,.T.);
#3880=EDGE_LOOP('',(#3870,#3860,#3850,#3840));
#3890=FACE_OUTER_BOUND('',#3880,.T.);
#3900=ADVANCED_FACE('',(#3890),#3830,.T.);
#3910=CLOSED_SHELL('',(#360,#750,#1080,#1420,#1660,#1980,#2310,#2530,
#2850,#2960,#3090,#3210,#3330,#3450,#3660,#3780,#3900));
#3920=MANIFOLD_SOLID_BREP('',#3910);
#3930=CARTESIAN_POINT('',(0.,0.,0.));
#3940=DIRECTION('',(0.,0.,1.));
#3950=DIRECTION('',(1.,0.,0.));
#3960=AXIS2_PLACEMENT_3D('',#3930,#3940,#3950);
#3970=APPLICATION_CONTEXT(' ');
#3980=APPLICATION_PROTOCOL_DEFINITION(' ','automotive_design',1998,#3970
);
#3990=PRODUCT_CONTEXT('',#3970,'mechanical');
#4000=PRODUCT_DEFINITION_CONTEXT('part definition',#3970,'design');
#4010=PRODUCT('Knopf','Knopf','',(#3990));
#4020=PRODUCT_RELATED_PRODUCT_CATEGORY('part',' ',(#4010));
#4030=PRODUCT_DEFINITION_FORMATION_WITH_SPECIFIED_SOURCE('','',#4010,
.BOUGHT.);
#4040=PRODUCT_DEFINITION('',' ',#4030,#4000);
#4050=PRODUCT_DEFINITION_SHAPE('','',#4040);
#4060=DIMENSIONAL_EXPONENTS(1.,0.,0.,0.,0.,0.,0.);
#4070=DIMENSIONAL_EXPONENTS(0.,0.,0.,0.,0.,0.,0.);
#4080=DIMENSIONAL_EXPONENTS(0.,0.,0.,0.,0.,0.,0.);
#4090=(LENGTH_UNIT() NAMED_UNIT(*) SI_UNIT(.MILLI.,.METRE.));
#4100=(NAMED_UNIT(*) PLANE_ANGLE_UNIT() SI_UNIT($,.RADIAN.));
#4110=(NAMED_UNIT(*) SI_UNIT($,.STERADIAN.) SOLID_ANGLE_UNIT());
#4120=(GEOMETRIC_REPRESENTATION_CONTEXT(3) 
GLOBAL_UNCERTAINTY_ASSIGNED_CONTEXT((#4130)) 
GLOBAL_UNIT_ASSIGNED_CONTEXT((#4090,#4100,#4110)) REPRESENTATION_CONTEXT
('',''));
#4130=UNCERTAINTY_MEASURE_WITH_UNIT(LENGTH_MEASURE(1.E-6),#4090,
'distance_accuracy_value','maximum gap value');
#4140=ADVANCED_BREP_SHAPE_REPRESENTATION('',(#3960,#3920),#4120);
#4150=SHAPE_DEFINITION_REPRESENTATION(#4050,#4140);
#4160=COLOUR_RGB('',0.760784387588501,0.00392156885936856,
0.117647066712379);
#4170=FILL_AREA_STYLE_COLOUR('',#4160);
#4180=FILL_AREA_STYLE('',(#4170));
#4190=SURFACE_STYLE_FILL_AREA(#4180);
#4200=SURFACE_SIDE_STYLE('',(#4190));
#4210=SURFACE_STYLE_USAGE(.BOTH.,#4200);
#4220=PRESENTATION_STYLE_ASSIGNMENT((#4210));
#4230=STYLED_ITEM('',(#4220),#3920);
#4240=OVER_RIDING_STYLED_ITEM('',(#2050),#1980,#4230);
#4250=OVER_RIDING_STYLED_ITEM('',(#3520),#3450,#4230);
#4260=DRAUGHTING_MODEL('',(#4230,#4240,#4250),#4120);
ENDSEC;
END-ISO-10303-21;
