ISO-10303-21;
HEADER;
FILE_DESCRIPTION(('Creo Elements/Direct Modeling STEP Export'),'2;1');
FILE_NAME('1891-52.stp','2017-09-07T 9:44:44',(''),(''),
'Creo Elements/Direct Modeling STEP processor for AP214 (Solid Model)',
'Creo Elements/Direct Modeling 20.0  12-Nov-2016 (C) Parametric Technolo
gy GmbH','');
FILE_SCHEMA(('AUTOMOTIVE_DESIGN { 1 0 10303 214 1 1 1 1 }'));
ENDSEC;
DATA;
#10=CARTESIAN_POINT('',(162.,86.1,-4.));
#20=DIRECTION('',(0.,-1.,0.));
#30=DIRECTION('',(0.,0.,1.));
#40=AXIS2_PLACEMENT_3D('',#10,#20,#30);
#50=PLANE('',#40);
#60=CARTESIAN_POINT('',(136.,86.1,3.));
#70=DIRECTION('',(0.,0.,-1.));
#80=VECTOR('',#70,1.);
#90=LINE('',#60,#80);
#100=CARTESIAN_POINT('',(136.,86.1,3.));
#110=VERTEX_POINT('',#100);
#120=CARTESIAN_POINT('',(136.,86.1,-3.15));
#130=VERTEX_POINT('',#120);
#140=EDGE_CURVE('',#110,#130,#90,.T.);
#150=ORIENTED_EDGE('',*,*,#140,.T.);
#160=CARTESIAN_POINT('',(162.,86.1,3.));
#170=DIRECTION('',(1.,0.,0.));
#180=VECTOR('',#170,1.);
#190=LINE('',#160,#180);
#200=CARTESIAN_POINT('',(188.,86.1,3.));
#210=VERTEX_POINT('',#200);
#220=EDGE_CURVE('',#110,#210,#190,.T.);
#230=ORIENTED_EDGE('',*,*,#220,.F.);
#240=CARTESIAN_POINT('',(188.,86.1,3.));
#250=DIRECTION('',(0.,0.,-1.));
#260=VECTOR('',#250,1.);
#270=LINE('',#240,#260);
#280=CARTESIAN_POINT('',(188.,86.1,-3.15));
#290=VERTEX_POINT('',#280);
#300=EDGE_CURVE('',#210,#290,#270,.T.);
#310=ORIENTED_EDGE('',*,*,#300,.F.);
#320=CARTESIAN_POINT('',(162.,86.1,-3.15));
#330=DIRECTION('',(-1.,0.,0.));
#340=VECTOR('',#330,1.);
#350=LINE('',#320,#340);
#360=EDGE_CURVE('',#290,#130,#350,.T.);
#370=ORIENTED_EDGE('',*,*,#360,.F.);
#380=EDGE_LOOP('',(#370,#310,#230,#150));
#390=FACE_OUTER_BOUND('',#380,.T.);
#400=ADVANCED_FACE('',(#390),#50,.T.);
#410=CARTESIAN_POINT('',(149.,68.,5.));
#420=DIRECTION('',(0.,0.,1.));
#430=DIRECTION('',(0.,1.,0.));
#440=AXIS2_PLACEMENT_3D('',#410,#420,#430);
#450=CONICAL_SURFACE('',#440,4.25,0.785398163397448);
#460=CARTESIAN_POINT('',(149.,63.75,5.));
#470=DIRECTION('',(0.,-0.707106781186548,0.707106781186548));
#480=VECTOR('',#470,6.01040764008565);
#490=LINE('',#460,#480);
#500=CARTESIAN_POINT('',(149.,65.75,3.));
#510=VERTEX_POINT('',#500);
#520=CARTESIAN_POINT('',(149.,63.9,4.85));
#530=VERTEX_POINT('',#520);
#540=EDGE_CURVE('',#510,#530,#490,.T.);
#550=ORIENTED_EDGE('',*,*,#540,.T.);
#560=CARTESIAN_POINT('',(149.,68.,3.));
#570=DIRECTION('',(0.,0.,-1.));
#580=DIRECTION('',(-1.,0.,0.));
#590=AXIS2_PLACEMENT_3D('',#560,#570,#580);
#600=CIRCLE('',#590,2.25);
#610=CARTESIAN_POINT('',(149.,70.25,3.));
#620=VERTEX_POINT('',#610);
#630=EDGE_CURVE('',#620,#510,#600,.T.);
#640=ORIENTED_EDGE('',*,*,#630,.T.);
#650=CARTESIAN_POINT('',(149.,72.25,5.));
#660=DIRECTION('',(0.,0.707106781186548,0.707106781186548));
#670=VECTOR('',#660,6.01040764008565);
#680=LINE('',#650,#670);
#690=CARTESIAN_POINT('',(149.,72.1,4.85));
#700=VERTEX_POINT('',#690);
#710=EDGE_CURVE('',#620,#700,#680,.T.);
#720=ORIENTED_EDGE('',*,*,#710,.F.);
#730=CARTESIAN_POINT('',(149.,68.,4.85));
#740=DIRECTION('',(0.,0.,1.));
#750=DIRECTION('',(0.,1.,0.));
#760=AXIS2_PLACEMENT_3D('',#730,#740,#750);
#770=CIRCLE('',#760,4.1);
#780=EDGE_CURVE('',#530,#700,#770,.T.);
#790=ORIENTED_EDGE('',*,*,#780,.T.);
#800=EDGE_LOOP('',(#790,#720,#640,#550));
#810=FACE_OUTER_BOUND('',#800,.T.);
#820=ADVANCED_FACE('',(#810),#450,.F.);
#830=CARTESIAN_POINT('',(162.,49.9,-4.));
#840=DIRECTION('',(0.,-1.,0.));
#850=DIRECTION('',(0.,0.,-1.));
#860=AXIS2_PLACEMENT_3D('',#830,#840,#850);
#870=PLANE('',#860);
#880=CARTESIAN_POINT('',(136.,49.9,3.));
#890=DIRECTION('',(0.,0.,-1.));
#900=VECTOR('',#890,1.);
#910=LINE('',#880,#900);
#920=CARTESIAN_POINT('',(136.,49.9,3.));
#930=VERTEX_POINT('',#920);
#940=CARTESIAN_POINT('',(136.,49.9,-3.15));
#950=VERTEX_POINT('',#940);
#960=EDGE_CURVE('',#930,#950,#910,.T.);
#970=ORIENTED_EDGE('',*,*,#960,.F.);
#980=CARTESIAN_POINT('',(162.,49.9,-3.15));
#990=DIRECTION('',(-1.,0.,0.));
#1000=VECTOR('',#990,1.);
#1010=LINE('',#980,#1000);
#1020=CARTESIAN_POINT('',(188.,49.9,-3.15));
#1030=VERTEX_POINT('',#1020);
#1040=EDGE_CURVE('',#1030,#950,#1010,.T.);
#1050=ORIENTED_EDGE('',*,*,#1040,.T.);
#1060=CARTESIAN_POINT('',(188.,49.9,3.));
#1070=DIRECTION('',(0.,0.,-1.));
#1080=VECTOR('',#1070,1.);
#1090=LINE('',#1060,#1080);
#1100=CARTESIAN_POINT('',(188.,49.9,3.));
#1110=VERTEX_POINT('',#1100);
#1120=EDGE_CURVE('',#1110,#1030,#1090,.T.);
#1130=ORIENTED_EDGE('',*,*,#1120,.T.);
#1140=CARTESIAN_POINT('',(162.,49.9,3.));
#1150=DIRECTION('',(-1.,0.,0.));
#1160=VECTOR('',#1150,1.);
#1170=LINE('',#1140,#1160);
#1180=EDGE_CURVE('',#1110,#930,#1170,.T.);
#1190=ORIENTED_EDGE('',*,*,#1180,.F.);
#1200=EDGE_LOOP('',(#1190,#1130,#1050,#970));
#1210=FACE_OUTER_BOUND('',#1200,.T.);
#1220=ADVANCED_FACE('',(#1210),#870,.F.);
#1230=CARTESIAN_POINT('',(162.,49.9,-3.15));
#1240=DIRECTION('',(-0.,0.,1.));
#1250=DIRECTION('',(0.,-1.,0.));
#1260=AXIS2_PLACEMENT_3D('',#1230,#1240,#1250);
#1270=PLANE('',#1260);
#1280=ORIENTED_EDGE('',*,*,#1040,.F.);
#1290=CARTESIAN_POINT('',(136.,49.9,-3.15));
#1300=DIRECTION('',(0.,-1.,0.));
#1310=VECTOR('',#1300,1.);
#1320=LINE('',#1290,#1310);
#1330=CARTESIAN_POINT('',(136.,47.9,-3.15));
#1340=VERTEX_POINT('',#1330);
#1350=EDGE_CURVE('',#950,#1340,#1320,.T.);
#1360=ORIENTED_EDGE('',*,*,#1350,.F.);
#1370=CARTESIAN_POINT('',(162.,47.9,-3.15));
#1380=DIRECTION('',(1.,0.,0.));
#1390=VECTOR('',#1380,1.);
#1400=LINE('',#1370,#1390);
#1410=CARTESIAN_POINT('',(188.,47.9,-3.15));
#1420=VERTEX_POINT('',#1410);
#1430=EDGE_CURVE('',#1340,#1420,#1400,.T.);
#1440=ORIENTED_EDGE('',*,*,#1430,.F.);
#1450=CARTESIAN_POINT('',(188.,49.9,-3.15));
#1460=DIRECTION('',(0.,-1.,0.));
#1470=VECTOR('',#1460,1.);
#1480=LINE('',#1450,#1470);
#1490=EDGE_CURVE('',#1030,#1420,#1480,.T.);
#1500=ORIENTED_EDGE('',*,*,#1490,.T.);
#1510=EDGE_LOOP('',(#1500,#1440,#1360,#1280));
#1520=FACE_OUTER_BOUND('',#1510,.T.);
#1530=ADVANCED_FACE('',(#1520),#1270,.F.);
#1540=CARTESIAN_POINT('',(175.,68.,5.));
#1550=DIRECTION('',(0.,0.,1.));
#1560=DIRECTION('',(0.,1.,0.));
#1570=AXIS2_PLACEMENT_3D('',#1540,#1550,#1560);
#1580=CONICAL_SURFACE('',#1570,4.25,0.785398163397448);
#1590=CARTESIAN_POINT('',(175.,72.25,5.));
#1600=DIRECTION('',(0.,0.707106781186548,0.707106781186548));
#1610=VECTOR('',#1600,6.01040764008565);
#1620=LINE('',#1590,#1610);
#1630=CARTESIAN_POINT('',(175.,70.25,3.));
#1640=VERTEX_POINT('',#1630);
#1650=CARTESIAN_POINT('',(175.,72.1,4.85));
#1660=VERTEX_POINT('',#1650);
#1670=EDGE_CURVE('',#1640,#1660,#1620,.T.);
#1680=ORIENTED_EDGE('',*,*,#1670,.T.);
#1690=CARTESIAN_POINT('',(175.,68.,3.));
#1700=DIRECTION('',(0.,0.,1.));
#1710=DIRECTION('',(1.,0.,0.));
#1720=AXIS2_PLACEMENT_3D('',#1690,#1700,#1710);
#1730=CIRCLE('',#1720,2.25);
#1740=CARTESIAN_POINT('',(175.,65.75,3.));
#1750=VERTEX_POINT('',#1740);
#1760=EDGE_CURVE('',#1640,#1750,#1730,.T.);
#1770=ORIENTED_EDGE('',*,*,#1760,.F.);
#1780=CARTESIAN_POINT('',(175.,63.75,5.));
#1790=DIRECTION('',(0.,-0.707106781186548,0.707106781186548));
#1800=VECTOR('',#1790,6.01040764008565);
#1810=LINE('',#1780,#1800);
#1820=CARTESIAN_POINT('',(175.,63.9,4.85));
#1830=VERTEX_POINT('',#1820);
#1840=EDGE_CURVE('',#1750,#1830,#1810,.T.);
#1850=ORIENTED_EDGE('',*,*,#1840,.F.);
#1860=CARTESIAN_POINT('',(175.,68.,4.85));
#1870=DIRECTION('',(0.,0.,-1.));
#1880=DIRECTION('',(0.,1.,0.));
#1890=AXIS2_PLACEMENT_3D('',#1860,#1870,#1880);
#1900=CIRCLE('',#1890,4.1);
#1910=EDGE_CURVE('',#1830,#1660,#1900,.T.);
#1920=ORIENTED_EDGE('',*,*,#1910,.F.);
#1930=EDGE_LOOP('',(#1920,#1850,#1770,#1680));
#1940=FACE_OUTER_BOUND('',#1930,.T.);
#1950=ADVANCED_FACE('',(#1940),#1580,.F.);
#1960=CARTESIAN_POINT('',(162.,47.9,4.85));
#1970=DIRECTION('',(0.,0.,-1.));
#1980=DIRECTION('',(0.,1.,0.));
#1990=AXIS2_PLACEMENT_3D('',#1960,#1970,#1980);
#2000=PLANE('',#1990);
#2010=EDGE_CURVE('',#700,#530,#770,.T.);
#2020=ORIENTED_EDGE('',*,*,#2010,.F.);
#2030=ORIENTED_EDGE('',*,*,#780,.F.);
#2040=EDGE_LOOP('',(#2030,#2020));
#2050=FACE_BOUND('',#2040,.T.);
#2060=EDGE_CURVE('',#1660,#1830,#1900,.T.);
#2070=ORIENTED_EDGE('',*,*,#2060,.T.);
#2080=ORIENTED_EDGE('',*,*,#1910,.T.);
#2090=EDGE_LOOP('',(#2080,#2070));
#2100=FACE_BOUND('',#2090,.T.);
#2110=CARTESIAN_POINT('',(162.,49.9,4.85));
#2120=DIRECTION('',(-1.,0.,0.));
#2130=VECTOR('',#2120,1.);
#2140=LINE('',#2110,#2130);
#2150=CARTESIAN_POINT('',(188.,49.9,4.85));
#2160=VERTEX_POINT('',#2150);
#2170=CARTESIAN_POINT('',(136.,49.9,4.85));
#2180=VERTEX_POINT('',#2170);
#2190=EDGE_CURVE('',#2160,#2180,#2140,.T.);
#2200=ORIENTED_EDGE('',*,*,#2190,.F.);
#2210=CARTESIAN_POINT('',(136.,88.1,4.85));
#2220=DIRECTION('',(0.,-1.,0.));
#2230=VECTOR('',#2220,1.);
#2240=LINE('',#2210,#2230);
#2250=CARTESIAN_POINT('',(136.,86.1,4.85));
#2260=VERTEX_POINT('',#2250);
#2270=EDGE_CURVE('',#2260,#2180,#2240,.T.);
#2280=ORIENTED_EDGE('',*,*,#2270,.T.);
#2290=CARTESIAN_POINT('',(162.,86.1,4.85));
#2300=DIRECTION('',(1.,0.,0.));
#2310=VECTOR('',#2300,1.);
#2320=LINE('',#2290,#2310);
#2330=CARTESIAN_POINT('',(188.,86.1,4.85));
#2340=VERTEX_POINT('',#2330);
#2350=EDGE_CURVE('',#2260,#2340,#2320,.T.);
#2360=ORIENTED_EDGE('',*,*,#2350,.F.);
#2370=CARTESIAN_POINT('',(188.,88.1,4.85));
#2380=DIRECTION('',(0.,-1.,0.));
#2390=VECTOR('',#2380,1.);
#2400=LINE('',#2370,#2390);
#2410=EDGE_CURVE('',#2340,#2160,#2400,.T.);
#2420=ORIENTED_EDGE('',*,*,#2410,.F.);
#2430=EDGE_LOOP('',(#2420,#2360,#2280,#2200));
#2440=FACE_OUTER_BOUND('',#2430,.T.);
#2450=ADVANCED_FACE('',(#2050,#2100,#2440),#2000,.F.);
#2460=CARTESIAN_POINT('',(136.,62.8822097440033,0.619684731390052));
#2470=DIRECTION('',(1.,0.,0.));
#2480=DIRECTION('',(0.,1.,0.));
#2490=AXIS2_PLACEMENT_3D('',#2460,#2470,#2480);
#2500=PLANE('',#2490);
#2510=CARTESIAN_POINT('',(136.,47.9,3.));
#2520=DIRECTION('',(0.,1.,0.));
#2530=VECTOR('',#2520,1.);
#2540=LINE('',#2510,#2530);
#2550=EDGE_CURVE('',#930,#110,#2540,.T.);
#2560=ORIENTED_EDGE('',*,*,#2550,.F.);
#2570=ORIENTED_EDGE('',*,*,#140,.F.);
#2580=CARTESIAN_POINT('',(136.,86.1,-3.15));
#2590=DIRECTION('',(0.,1.,0.));
#2600=VECTOR('',#2590,1.);
#2610=LINE('',#2580,#2600);
#2620=CARTESIAN_POINT('',(136.,88.1,-3.15));
#2630=VERTEX_POINT('',#2620);
#2640=EDGE_CURVE('',#130,#2630,#2610,.T.);
#2650=ORIENTED_EDGE('',*,*,#2640,.F.);
#2660=CARTESIAN_POINT('',(136.,88.1,-4.));
#2670=DIRECTION('',(0.,0.,1.));
#2680=VECTOR('',#2670,1.);
#2690=LINE('',#2660,#2680);
#2700=CARTESIAN_POINT('',(136.,88.1,2.85));
#2710=VERTEX_POINT('',#2700);
#2720=EDGE_CURVE('',#2630,#2710,#2690,.T.);
#2730=ORIENTED_EDGE('',*,*,#2720,.F.);
#2740=CARTESIAN_POINT('',(136.,86.1,2.85));
#2750=DIRECTION('',(1.,0.,0.));
#2760=DIRECTION('',(0.,1.,0.));
#2770=AXIS2_PLACEMENT_3D('',#2740,#2750,#2760);
#2780=CIRCLE('',#2770,2.);
#2790=EDGE_CURVE('',#2710,#2260,#2780,.T.);
#2800=ORIENTED_EDGE('',*,*,#2790,.F.);
#2810=ORIENTED_EDGE('',*,*,#2270,.F.);
#2820=CARTESIAN_POINT('',(136.,49.9,2.85));
#2830=DIRECTION('',(-1.,0.,0.));
#2840=DIRECTION('',(0.,-1.,0.));
#2850=AXIS2_PLACEMENT_3D('',#2820,#2830,#2840);
#2860=CIRCLE('',#2850,2.);
#2870=CARTESIAN_POINT('',(136.,47.9,2.85));
#2880=VERTEX_POINT('',#2870);
#2890=EDGE_CURVE('',#2880,#2180,#2860,.T.);
#2900=ORIENTED_EDGE('',*,*,#2890,.T.);
#2910=CARTESIAN_POINT('',(136.,47.9,-4.));
#2920=DIRECTION('',(0.,0.,1.));
#2930=VECTOR('',#2920,1.);
#2940=LINE('',#2910,#2930);
#2950=EDGE_CURVE('',#1340,#2880,#2940,.T.);
#2960=ORIENTED_EDGE('',*,*,#2950,.T.);
#2970=ORIENTED_EDGE('',*,*,#1350,.T.);
#2980=ORIENTED_EDGE('',*,*,#960,.T.);
#2990=EDGE_LOOP('',(#2980,#2970,#2960,#2900,#2810,#2800,#2730,#2650,
#2570,#2560));
#3000=FACE_OUTER_BOUND('',#2990,.T.);
#3010=ADVANCED_FACE('',(#3000),#2500,.F.);
#3020=CARTESIAN_POINT('',(162.,88.1,-3.15));
#3030=DIRECTION('',(-0.,-0.,-1.));
#3040=DIRECTION('',(0.,-1.,0.));
#3050=AXIS2_PLACEMENT_3D('',#3020,#3030,#3040);
#3060=PLANE('',#3050);
#3070=CARTESIAN_POINT('',(188.,86.1,-3.15));
#3080=DIRECTION('',(0.,1.,0.));
#3090=VECTOR('',#3080,1.);
#3100=LINE('',#3070,#3090);
#3110=CARTESIAN_POINT('',(188.,88.1,-3.15));
#3120=VERTEX_POINT('',#3110);
#3130=EDGE_CURVE('',#290,#3120,#3100,.T.);
#3140=ORIENTED_EDGE('',*,*,#3130,.F.);
#3150=CARTESIAN_POINT('',(162.,88.1,-3.15));
#3160=DIRECTION('',(1.,0.,0.));
#3170=VECTOR('',#3160,1.);
#3180=LINE('',#3150,#3170);
#3190=EDGE_CURVE('',#2630,#3120,#3180,.T.);
#3200=ORIENTED_EDGE('',*,*,#3190,.T.);
#3210=ORIENTED_EDGE('',*,*,#2640,.T.);
#3220=ORIENTED_EDGE('',*,*,#360,.T.);
#3230=EDGE_LOOP('',(#3220,#3210,#3200,#3140));
#3240=FACE_OUTER_BOUND('',#3230,.T.);
#3250=ADVANCED_FACE('',(#3240),#3060,.T.);
#3260=CARTESIAN_POINT('',(162.,47.9,-4.));
#3270=DIRECTION('',(0.,1.,0.));
#3280=DIRECTION('',(0.,0.,1.));
#3290=AXIS2_PLACEMENT_3D('',#3260,#3270,#3280);
#3300=PLANE('',#3290);
#3310=CARTESIAN_POINT('',(188.,47.9,-4.));
#3320=DIRECTION('',(0.,0.,1.));
#3330=VECTOR('',#3320,1.);
#3340=LINE('',#3310,#3330);
#3350=CARTESIAN_POINT('',(188.,47.9,2.85));
#3360=VERTEX_POINT('',#3350);
#3370=EDGE_CURVE('',#1420,#3360,#3340,.T.);
#3380=ORIENTED_EDGE('',*,*,#3370,.T.);
#3390=ORIENTED_EDGE('',*,*,#1430,.T.);
#3400=ORIENTED_EDGE('',*,*,#2950,.F.);
#3410=CARTESIAN_POINT('',(162.,47.9,2.85));
#3420=DIRECTION('',(-1.,0.,0.));
#3430=VECTOR('',#3420,1.);
#3440=LINE('',#3410,#3430);
#3450=EDGE_CURVE('',#3360,#2880,#3440,.T.);
#3460=ORIENTED_EDGE('',*,*,#3450,.T.);
#3470=EDGE_LOOP('',(#3460,#3400,#3390,#3380));
#3480=FACE_OUTER_BOUND('',#3470,.T.);
#3490=ADVANCED_FACE('',(#3480),#3300,.F.);
#3500=CARTESIAN_POINT('',(188.,62.8822097440033,0.619684731390052));
#3510=DIRECTION('',(1.,0.,0.));
#3520=DIRECTION('',(0.,1.,0.));
#3530=AXIS2_PLACEMENT_3D('',#3500,#3510,#3520);
#3540=PLANE('',#3530);
#3550=ORIENTED_EDGE('',*,*,#1120,.F.);
#3560=ORIENTED_EDGE('',*,*,#1490,.F.);
#3570=ORIENTED_EDGE('',*,*,#3370,.F.);
#3580=CARTESIAN_POINT('',(188.,49.9,2.85));
#3590=DIRECTION('',(-1.,0.,0.));
#3600=DIRECTION('',(0.,-1.,0.));
#3610=AXIS2_PLACEMENT_3D('',#3580,#3590,#3600);
#3620=CIRCLE('',#3610,2.);
#3630=EDGE_CURVE('',#3360,#2160,#3620,.T.);
#3640=ORIENTED_EDGE('',*,*,#3630,.F.);
#3650=ORIENTED_EDGE('',*,*,#2410,.T.);
#3660=CARTESIAN_POINT('',(188.,86.1,2.85));
#3670=DIRECTION('',(1.,0.,0.));
#3680=DIRECTION('',(0.,1.,0.));
#3690=AXIS2_PLACEMENT_3D('',#3660,#3670,#3680);
#3700=CIRCLE('',#3690,2.);
#3710=CARTESIAN_POINT('',(188.,88.1,2.85));
#3720=VERTEX_POINT('',#3710);
#3730=EDGE_CURVE('',#3720,#2340,#3700,.T.);
#3740=ORIENTED_EDGE('',*,*,#3730,.T.);
#3750=CARTESIAN_POINT('',(188.,88.1,-4.));
#3760=DIRECTION('',(0.,0.,1.));
#3770=VECTOR('',#3760,1.);
#3780=LINE('',#3750,#3770);
#3790=EDGE_CURVE('',#3120,#3720,#3780,.T.);
#3800=ORIENTED_EDGE('',*,*,#3790,.T.);
#3810=ORIENTED_EDGE('',*,*,#3130,.T.);
#3820=ORIENTED_EDGE('',*,*,#300,.T.);
#3830=CARTESIAN_POINT('',(188.,47.9,3.));
#3840=DIRECTION('',(0.,1.,0.));
#3850=VECTOR('',#3840,1.);
#3860=LINE('',#3830,#3850);
#3870=EDGE_CURVE('',#1110,#210,#3860,.T.);
#3880=ORIENTED_EDGE('',*,*,#3870,.T.);
#3890=EDGE_LOOP('',(#3880,#3820,#3810,#3800,#3740,#3650,#3640,#3570,
#3560,#3550));
#3900=FACE_OUTER_BOUND('',#3890,.T.);
#3910=ADVANCED_FACE('',(#3900),#3540,.T.);
#3920=CARTESIAN_POINT('',(162.,49.9,3.));
#3930=DIRECTION('',(-0.,0.,1.));
#3940=DIRECTION('',(0.,-1.,0.));
#3950=AXIS2_PLACEMENT_3D('',#3920,#3930,#3940);
#3960=PLANE('',#3950);
#3970=ORIENTED_EDGE('',*,*,#1760,.T.);
#3980=CARTESIAN_POINT('',(177.25,68.,3.));
#3990=VERTEX_POINT('',#3980);
#4000=EDGE_CURVE('',#3990,#1640,#1730,.T.);
#4010=ORIENTED_EDGE('',*,*,#4000,.T.);
#4020=EDGE_CURVE('',#1750,#3990,#1730,.T.);
#4030=ORIENTED_EDGE('',*,*,#4020,.T.);
#4040=EDGE_LOOP('',(#4030,#4010,#3970));
#4050=FACE_BOUND('',#4040,.T.);
#4060=CARTESIAN_POINT('',(146.75,68.,3.));
#4070=VERTEX_POINT('',#4060);
#4080=EDGE_CURVE('',#4070,#620,#600,.T.);
#4090=ORIENTED_EDGE('',*,*,#4080,.F.);
#4100=ORIENTED_EDGE('',*,*,#630,.F.);
#4110=EDGE_CURVE('',#510,#4070,#600,.T.);
#4120=ORIENTED_EDGE('',*,*,#4110,.F.);
#4130=EDGE_LOOP('',(#4120,#4100,#4090));
#4140=FACE_BOUND('',#4130,.T.);
#4150=ORIENTED_EDGE('',*,*,#2550,.T.);
#4160=ORIENTED_EDGE('',*,*,#1180,.T.);
#4170=ORIENTED_EDGE('',*,*,#3870,.F.);
#4180=ORIENTED_EDGE('',*,*,#220,.T.);
#4190=EDGE_LOOP('',(#4180,#4170,#4160,#4150));
#4200=FACE_OUTER_BOUND('',#4190,.T.);
#4210=ADVANCED_FACE('',(#4050,#4140,#4200),#3960,.F.);
#4220=CARTESIAN_POINT('',(162.,88.1,-4.));
#4230=DIRECTION('',(0.,-1.,0.));
#4240=DIRECTION('',(0.,0.,-1.));
#4250=AXIS2_PLACEMENT_3D('',#4220,#4230,#4240);
#4260=PLANE('',#4250);
#4270=ORIENTED_EDGE('',*,*,#2720,.T.);
#4280=ORIENTED_EDGE('',*,*,#3190,.F.);
#4290=ORIENTED_EDGE('',*,*,#3790,.F.);
#4300=CARTESIAN_POINT('',(162.,88.1,2.85));
#4310=DIRECTION('',(1.,0.,0.));
#4320=VECTOR('',#4310,1.);
#4330=LINE('',#4300,#4320);
#4340=EDGE_CURVE('',#2710,#3720,#4330,.T.);
#4350=ORIENTED_EDGE('',*,*,#4340,.T.);
#4360=EDGE_LOOP('',(#4350,#4290,#4280,#4270));
#4370=FACE_OUTER_BOUND('',#4360,.T.);
#4380=ADVANCED_FACE('',(#4370),#4260,.F.);
#4390=CARTESIAN_POINT('',(162.,49.9,2.85));
#4400=DIRECTION('',(-1.,0.,0.));
#4410=DIRECTION('',(0.,-1.,0.));
#4420=AXIS2_PLACEMENT_3D('',#4390,#4400,#4410);
#4430=CYLINDRICAL_SURFACE('',#4420,2.);
#4440=ORIENTED_EDGE('',*,*,#2890,.F.);
#4450=ORIENTED_EDGE('',*,*,#2190,.T.);
#4460=ORIENTED_EDGE('',*,*,#3630,.T.);
#4470=ORIENTED_EDGE('',*,*,#3450,.F.);
#4480=EDGE_LOOP('',(#4470,#4460,#4450,#4440));
#4490=FACE_OUTER_BOUND('',#4480,.T.);
#4500=ADVANCED_FACE('',(#4490),#4430,.T.);
#4510=CARTESIAN_POINT('',(162.,86.1,2.85));
#4520=DIRECTION('',(1.,0.,0.));
#4530=DIRECTION('',(0.,1.,0.));
#4540=AXIS2_PLACEMENT_3D('',#4510,#4520,#4530);
#4550=CYLINDRICAL_SURFACE('',#4540,2.);
#4560=ORIENTED_EDGE('',*,*,#3730,.F.);
#4570=ORIENTED_EDGE('',*,*,#2350,.T.);
#4580=ORIENTED_EDGE('',*,*,#2790,.T.);
#4590=ORIENTED_EDGE('',*,*,#4340,.F.);
#4600=EDGE_LOOP('',(#4590,#4580,#4570,#4560));
#4610=FACE_OUTER_BOUND('',#4600,.T.);
#4620=ADVANCED_FACE('',(#4610),#4550,.T.);
#4630=CARTESIAN_POINT('',(175.,68.,5.));
#4640=DIRECTION('',(0.,0.,1.));
#4650=DIRECTION('',(0.,1.,0.));
#4660=AXIS2_PLACEMENT_3D('',#4630,#4640,#4650);
#4670=CONICAL_SURFACE('',#4660,4.25,0.785398163397448);
#4680=ORIENTED_EDGE('',*,*,#4000,.F.);
#4690=ORIENTED_EDGE('',*,*,#1670,.F.);
#4700=ORIENTED_EDGE('',*,*,#2060,.F.);
#4710=ORIENTED_EDGE('',*,*,#1840,.T.);
#4720=ORIENTED_EDGE('',*,*,#4020,.F.);
#4730=EDGE_LOOP('',(#4720,#4710,#4700,#4690,#4680));
#4740=FACE_OUTER_BOUND('',#4730,.T.);
#4750=ADVANCED_FACE('',(#4740),#4670,.F.);
#4760=CARTESIAN_POINT('',(149.,68.,5.));
#4770=DIRECTION('',(0.,0.,1.));
#4780=DIRECTION('',(0.,1.,0.));
#4790=AXIS2_PLACEMENT_3D('',#4760,#4770,#4780);
#4800=CONICAL_SURFACE('',#4790,4.25,0.785398163397448);
#4810=ORIENTED_EDGE('',*,*,#540,.F.);
#4820=ORIENTED_EDGE('',*,*,#2010,.T.);
#4830=ORIENTED_EDGE('',*,*,#710,.T.);
#4840=ORIENTED_EDGE('',*,*,#4080,.T.);
#4850=ORIENTED_EDGE('',*,*,#4110,.T.);
#4860=EDGE_LOOP('',(#4850,#4840,#4830,#4820,#4810));
#4870=FACE_OUTER_BOUND('',#4860,.T.);
#4880=ADVANCED_FACE('',(#4870),#4800,.F.);
#4890=CLOSED_SHELL('',(#400,#820,#1220,#1530,#1950,#2450,#3010,#3250,
#3490,#3910,#4210,#4380,#4500,#4620,#4750,#4880));
#4900=MANIFOLD_SOLID_BREP('',#4890);
#4910=CARTESIAN_POINT('',(0.,0.,0.));
#4920=DIRECTION('',(0.,0.,1.));
#4930=DIRECTION('',(1.,0.,0.));
#4940=AXIS2_PLACEMENT_3D('',#4910,#4920,#4930);
#4950=APPLICATION_CONTEXT(' ');
#4960=APPLICATION_PROTOCOL_DEFINITION(' ','automotive_design',1998,#4950
);
#4970=PRODUCT_CONTEXT('',#4950,'mechanical');
#4980=PRODUCT_DEFINITION_CONTEXT('part definition',#4950,'design');
#4990=PRODUCT('Verbindungsstueck','Verbindungsstueck','',(#4970));
#5000=PRODUCT_RELATED_PRODUCT_CATEGORY('part',' ',(#4990));
#5010=PRODUCT_DEFINITION_FORMATION_WITH_SPECIFIED_SOURCE('','',#4990,
.BOUGHT.);
#5020=PRODUCT_DEFINITION('',' ',#5010,#4980);
#5030=PRODUCT_DEFINITION_SHAPE('','',#5020);
#5040=DIMENSIONAL_EXPONENTS(1.,0.,0.,0.,0.,0.,0.);
#5050=DIMENSIONAL_EXPONENTS(0.,0.,0.,0.,0.,0.,0.);
#5060=DIMENSIONAL_EXPONENTS(0.,0.,0.,0.,0.,0.,0.);
#5070=(LENGTH_UNIT() NAMED_UNIT(*) SI_UNIT(.MILLI.,.METRE.));
#5080=(NAMED_UNIT(*) PLANE_ANGLE_UNIT() SI_UNIT($,.RADIAN.));
#5090=(NAMED_UNIT(*) SI_UNIT($,.STERADIAN.) SOLID_ANGLE_UNIT());
#5100=(GEOMETRIC_REPRESENTATION_CONTEXT(3) 
GLOBAL_UNCERTAINTY_ASSIGNED_CONTEXT((#5110)) 
GLOBAL_UNIT_ASSIGNED_CONTEXT((#5070,#5080,#5090)) REPRESENTATION_CONTEXT
('',''));
#5110=UNCERTAINTY_MEASURE_WITH_UNIT(LENGTH_MEASURE(1.E-6),#5070,
'distance_accuracy_value','maximum gap value');
#5120=ADVANCED_BREP_SHAPE_REPRESENTATION('',(#4940,#4900),#5100);
#5130=SHAPE_DEFINITION_REPRESENTATION(#5030,#5120);
#5140=COLOUR_RGB('',0.600000023841858,0.600000023841858,
0.600000023841858);
#5150=FILL_AREA_STYLE_COLOUR('',#5140);
#5160=FILL_AREA_STYLE('',(#5150));
#5170=SURFACE_STYLE_FILL_AREA(#5160);
#5180=SURFACE_SIDE_STYLE('',(#5170));
#5190=SURFACE_STYLE_USAGE(.BOTH.,#5180);
#5200=PRESENTATION_STYLE_ASSIGNMENT((#5190));
#5210=STYLED_ITEM('',(#5200),#4900);
#5220=DRAUGHTING_MODEL('',(#5210),#5100);
ENDSEC;
END-ISO-10303-21;
