ISO-10303-21;
HEADER;
FILE_DESCRIPTION(('Creo Elements/Direct Modeling STEP Export'),'2;1');
FILE_NAME('0385-40.stp','2018-11-16T11:48:10',(''),(''),
'Creo Elements/Direct Modeling STEP processor for AP214 (Solid Model)',
'Creo Elements/Direct Modeling 20.0  12-Nov-2016 (C) Parametric Technolo
gy GmbH','');
FILE_SCHEMA(('AUTOMOTIVE_DESIGN { 1 0 10303 214 1 1 1 1 }'));
ENDSEC;
DATA;
#10=CARTESIAN_POINT('',(6.51833333333334,-22.5,0.));
#20=DIRECTION('',(-0.,1.,0.));
#30=DIRECTION('',(1.,0.,0.));
#40=AXIS2_PLACEMENT_3D('',#10,#20,#30);
#50=PLANE('',#40);
#60=CARTESIAN_POINT('',(0.,-22.5,0.));
#70=DIRECTION('',(0.,-1.,0.));
#80=DIRECTION('',(-1.,0.,0.));
#90=AXIS2_PLACEMENT_3D('',#60,#70,#80);
#100=CIRCLE('',#90,2.);
#110=CARTESIAN_POINT('',(1.6,-22.5,1.2));
#120=VERTEX_POINT('',#110);
#130=CARTESIAN_POINT('',(1.2,-22.5,1.6));
#140=VERTEX_POINT('',#130);
#150=EDGE_CURVE('',#120,#140,#100,.T.);
#160=ORIENTED_EDGE('',*,*,#150,.F.);
#170=CARTESIAN_POINT('',(0.,-22.5,1.6));
#180=DIRECTION('',(-1.,-0.,0.));
#190=VECTOR('',#180,1.);
#200=LINE('',#170,#190);
#210=CARTESIAN_POINT('',(-1.2,-22.5,1.6));
#220=VERTEX_POINT('',#210);
#230=EDGE_CURVE('',#140,#220,#200,.T.);
#240=ORIENTED_EDGE('',*,*,#230,.F.);
#250=CARTESIAN_POINT('',(0.,-22.5,0.));
#260=DIRECTION('',(0.,-1.,0.));
#270=DIRECTION('',(-1.,0.,0.));
#280=AXIS2_PLACEMENT_3D('',#250,#260,#270);
#290=CIRCLE('',#280,2.);
#300=CARTESIAN_POINT('',(-1.6,-22.5,1.2));
#310=VERTEX_POINT('',#300);
#320=EDGE_CURVE('',#220,#310,#290,.T.);
#330=ORIENTED_EDGE('',*,*,#320,.F.);
#340=CARTESIAN_POINT('',(-1.6,-22.5,0.));
#350=DIRECTION('',(8.88178419700125E-16,0.,-1.));
#360=VECTOR('',#350,1.);
#370=LINE('',#340,#360);
#380=CARTESIAN_POINT('',(-1.6,-22.5,-1.2));
#390=VERTEX_POINT('',#380);
#400=EDGE_CURVE('',#310,#390,#370,.T.);
#410=ORIENTED_EDGE('',*,*,#400,.F.);
#420=CARTESIAN_POINT('',(0.,-22.5,0.));
#430=DIRECTION('',(-0.,1.,-0.));
#440=DIRECTION('',(-1.,0.,0.));
#450=AXIS2_PLACEMENT_3D('',#420,#430,#440);
#460=CIRCLE('',#450,2.);
#470=CARTESIAN_POINT('',(-1.2,-22.5,-1.6));
#480=VERTEX_POINT('',#470);
#490=EDGE_CURVE('',#480,#390,#460,.T.);
#500=ORIENTED_EDGE('',*,*,#490,.T.);
#510=CARTESIAN_POINT('',(0.,-22.5,-1.6));
#520=DIRECTION('',(-1.,0.,-0.));
#530=VECTOR('',#520,1.);
#540=LINE('',#510,#530);
#550=CARTESIAN_POINT('',(1.2,-22.5,-1.6));
#560=VERTEX_POINT('',#550);
#570=EDGE_CURVE('',#560,#480,#540,.T.);
#580=ORIENTED_EDGE('',*,*,#570,.T.);
#590=CARTESIAN_POINT('',(0.,-22.5,0.));
#600=DIRECTION('',(-0.,1.,-0.));
#610=DIRECTION('',(-1.,0.,0.));
#620=AXIS2_PLACEMENT_3D('',#590,#600,#610);
#630=CIRCLE('',#620,2.);
#640=CARTESIAN_POINT('',(1.6,-22.5,-1.2));
#650=VERTEX_POINT('',#640);
#660=EDGE_CURVE('',#650,#560,#630,.T.);
#670=ORIENTED_EDGE('',*,*,#660,.T.);
#680=CARTESIAN_POINT('',(1.6,-22.5,0.));
#690=DIRECTION('',(-8.88178419700125E-16,0.,1.));
#700=VECTOR('',#690,1.);
#710=LINE('',#680,#700);
#720=EDGE_CURVE('',#650,#120,#710,.T.);
#730=ORIENTED_EDGE('',*,*,#720,.F.);
#740=EDGE_LOOP('',(#730,#670,#580,#500,#410,#330,#240,#160));
#750=FACE_BOUND('',#740,.T.);
#760=CARTESIAN_POINT('',(0.,-22.5,0.));
#770=DIRECTION('',(0.,1.,0.));
#780=DIRECTION('',(1.,0.,0.));
#790=AXIS2_PLACEMENT_3D('',#760,#770,#780);
#800=CIRCLE('',#790,11.25);
#810=CARTESIAN_POINT('',(-11.25,-22.5,-1.37772764904077E-15));
#820=VERTEX_POINT('',#810);
#830=CARTESIAN_POINT('',(11.25,-22.5,0.));
#840=VERTEX_POINT('',#830);
#850=EDGE_CURVE('',#820,#840,#800,.T.);
#860=ORIENTED_EDGE('',*,*,#850,.F.);
#870=EDGE_CURVE('',#840,#820,#800,.T.);
#880=ORIENTED_EDGE('',*,*,#870,.F.);
#890=EDGE_LOOP('',(#880,#860));
#900=FACE_OUTER_BOUND('',#890,.T.);
#910=ADVANCED_FACE('',(#750,#900),#50,.F.);
#920=CARTESIAN_POINT('',(0.,-21.,0.));
#930=DIRECTION('',(0.,1.,0.));
#940=DIRECTION('',(1.,0.,0.));
#950=AXIS2_PLACEMENT_3D('',#920,#930,#940);
#960=CYLINDRICAL_SURFACE('',#950,11.25);
#970=CARTESIAN_POINT('',(-11.25,-21.,-1.37772764904077E-15));
#980=DIRECTION('',(0.,1.,0.));
#990=VECTOR('',#980,1.);
#1000=LINE('',#970,#990);
#1010=CARTESIAN_POINT('',(-11.25,-19.5,0.));
#1020=VERTEX_POINT('',#1010);
#1030=EDGE_CURVE('',#820,#1020,#1000,.T.);
#1040=ORIENTED_EDGE('',*,*,#1030,.T.);
#1050=ORIENTED_EDGE('',*,*,#870,.T.);
#1060=CARTESIAN_POINT('',(11.25,-21.,0.));
#1070=DIRECTION('',(0.,1.,0.));
#1080=VECTOR('',#1070,1.);
#1090=LINE('',#1060,#1080);
#1100=CARTESIAN_POINT('',(11.25,-19.5,0.));
#1110=VERTEX_POINT('',#1100);
#1120=EDGE_CURVE('',#840,#1110,#1090,.T.);
#1130=ORIENTED_EDGE('',*,*,#1120,.F.);
#1140=CARTESIAN_POINT('',(0.,-19.5,0.));
#1150=DIRECTION('',(0.,1.,0.));
#1160=DIRECTION('',(1.,0.,0.));
#1170=AXIS2_PLACEMENT_3D('',#1140,#1150,#1160);
#1180=CIRCLE('',#1170,11.25);
#1190=EDGE_CURVE('',#1110,#1020,#1180,.T.);
#1200=ORIENTED_EDGE('',*,*,#1190,.F.);
#1210=EDGE_LOOP('',(#1200,#1130,#1050,#1040));
#1220=FACE_OUTER_BOUND('',#1210,.T.);
#1230=ADVANCED_FACE('',(#1220),#960,.T.);
#1240=CARTESIAN_POINT('',(0.,-19.5,0.));
#1250=DIRECTION('',(0.,1.,0.));
#1260=DIRECTION('',(1.,0.,0.));
#1270=AXIS2_PLACEMENT_3D('',#1240,#1250,#1260);
#1280=TOROIDAL_SURFACE('',#1270,10.25,1.);
#1290=CARTESIAN_POINT('',(10.25,-19.5,0.));
#1300=DIRECTION('',(0.,0.,-1.));
#1310=DIRECTION('',(1.,0.,0.));
#1320=AXIS2_PLACEMENT_3D('',#1290,#1300,#1310);
#1330=CIRCLE('',#1320,1.);
#1340=CARTESIAN_POINT('',(10.275,-18.5003125488434,0.));
#1350=VERTEX_POINT('',#1340);
#1360=EDGE_CURVE('',#1350,#1110,#1330,.T.);
#1370=ORIENTED_EDGE('',*,*,#1360,.F.);
#1380=EDGE_CURVE('',#1020,#1110,#1180,.T.);
#1390=ORIENTED_EDGE('',*,*,#1380,.T.);
#1400=CARTESIAN_POINT('',(-10.25,-19.5,0.));
#1410=DIRECTION('',(0.,0.,1.));
#1420=DIRECTION('',(-1.,0.,0.));
#1430=AXIS2_PLACEMENT_3D('',#1400,#1410,#1420);
#1440=CIRCLE('',#1430,1.);
#1450=CARTESIAN_POINT('',(-10.275,-18.5003125488434,0.));
#1460=VERTEX_POINT('',#1450);
#1470=EDGE_CURVE('',#1460,#1020,#1440,.T.);
#1480=ORIENTED_EDGE('',*,*,#1470,.T.);
#1490=CARTESIAN_POINT('',(0.,-18.5003125488434,0.));
#1500=DIRECTION('',(0.,1.,0.));
#1510=DIRECTION('',(1.,0.,0.));
#1520=AXIS2_PLACEMENT_3D('',#1490,#1500,#1510);
#1530=CIRCLE('',#1520,10.275);
#1540=EDGE_CURVE('',#1460,#1350,#1530,.T.);
#1550=ORIENTED_EDGE('',*,*,#1540,.F.);
#1560=EDGE_LOOP('',(#1550,#1480,#1390,#1370));
#1570=FACE_OUTER_BOUND('',#1560,.T.);
#1580=ADVANCED_FACE('',(#1570),#1280,.T.);
#1590=CARTESIAN_POINT('',(0.,-5.79555495773441,0.));
#1600=DIRECTION('',(0.,1.,0.));
#1610=DIRECTION('',(1.,0.,0.));
#1620=AXIS2_PLACEMENT_3D('',#1590,#1600,#1610);
#1630=CONICAL_SURFACE('',#1620,15.5529142706151,1.30899693899575);
#1640=CARTESIAN_POINT('',(-15.5529142706151,-5.79555495773441,
-1.9046826678922E-15));
#1650=DIRECTION('',(-0.965925826289069,0.25881904510252,
-1.18291797137867E-16));
#1660=VECTOR('',#1650,16.1015616803279);
#1670=LINE('',#1640,#1660);
#1680=CARTESIAN_POINT('',(-11.5235428646924,-6.87522177195645,0.));
#1690=VERTEX_POINT('',#1680);
#1700=CARTESIAN_POINT('',(-15.5529142706151,-5.79555495773442,0.));
#1710=VERTEX_POINT('',#1700);
#1720=EDGE_CURVE('',#1690,#1710,#1670,.T.);
#1730=ORIENTED_EDGE('',*,*,#1720,.T.);
#1740=CARTESIAN_POINT('',(0.,-6.87522177195645,0.));
#1750=DIRECTION('',(0.,1.,0.));
#1760=DIRECTION('',(1.,0.,0.));
#1770=AXIS2_PLACEMENT_3D('',#1740,#1750,#1760);
#1780=CIRCLE('',#1770,11.5235428646924);
#1790=CARTESIAN_POINT('',(11.5235428646924,-6.87522177195645,0.));
#1800=VERTEX_POINT('',#1790);
#1810=EDGE_CURVE('',#1800,#1690,#1780,.T.);
#1820=ORIENTED_EDGE('',*,*,#1810,.T.);
#1830=CARTESIAN_POINT('',(15.5529142706151,-5.79555495773441,0.));
#1840=DIRECTION('',(0.965925826289069,0.25881904510252,0.));
#1850=VECTOR('',#1840,16.1015616803279);
#1860=LINE('',#1830,#1850);
#1870=CARTESIAN_POINT('',(15.5529142706151,-5.79555495773442,0.));
#1880=VERTEX_POINT('',#1870);
#1890=EDGE_CURVE('',#1800,#1880,#1860,.T.);
#1900=ORIENTED_EDGE('',*,*,#1890,.F.);
#1910=CARTESIAN_POINT('',(0.,-5.79555495773441,0.));
#1920=DIRECTION('',(0.,1.,0.));
#1930=DIRECTION('',(1.,-5.71068806942635E-17,0.));
#1940=AXIS2_PLACEMENT_3D('',#1910,#1920,#1930);
#1950=CIRCLE('',#1940,15.5529142706151);
#1960=EDGE_CURVE('',#1880,#1710,#1950,.T.);
#1970=ORIENTED_EDGE('',*,*,#1960,.F.);
#1980=EDGE_LOOP('',(#1970,#1900,#1820,#1730));
#1990=FACE_OUTER_BOUND('',#1980,.T.);
#2000=ADVANCED_FACE('',(#1990),#1630,.T.);
#2010=CARTESIAN_POINT('',(0.,-9.77299925082366,0.));
#2020=DIRECTION('',(0.,1.,0.));
#2030=DIRECTION('',(1.,0.,0.));
#2040=AXIS2_PLACEMENT_3D('',#2010,#2020,#2030);
#2050=TOROIDAL_SURFACE('',#2040,12.3,3.00000000000001);
#2060=CARTESIAN_POINT('',(12.3,-9.77299925082366,0.));
#2070=DIRECTION('',(0.,0.,-1.));
#2080=DIRECTION('',(1.,0.,0.));
#2090=AXIS2_PLACEMENT_3D('',#2060,#2070,#2080);
#2100=CIRCLE('',#2090,3.00000000000001);
#2110=CARTESIAN_POINT('',(9.29999999999999,-9.77299925082366,0.));
#2120=VERTEX_POINT('',#2110);
#2130=EDGE_CURVE('',#2120,#1800,#2100,.T.);
#2140=ORIENTED_EDGE('',*,*,#2130,.F.);
#2150=ORIENTED_EDGE('',*,*,#1810,.F.);
#2160=CARTESIAN_POINT('',(-12.3,-9.77299925082366,0.));
#2170=DIRECTION('',(0.,0.,1.));
#2180=DIRECTION('',(-1.,0.,0.));
#2190=AXIS2_PLACEMENT_3D('',#2160,#2170,#2180);
#2200=CIRCLE('',#2190,3.00000000000001);
#2210=CARTESIAN_POINT('',(-9.29999999999999,-9.77299925082366,0.));
#2220=VERTEX_POINT('',#2210);
#2230=EDGE_CURVE('',#2220,#1690,#2200,.T.);
#2240=ORIENTED_EDGE('',*,*,#2230,.T.);
#2250=CARTESIAN_POINT('',(0.,-9.77299925082366,0.));
#2260=DIRECTION('',(0.,1.,0.));
#2270=DIRECTION('',(1.,0.,0.));
#2280=AXIS2_PLACEMENT_3D('',#2250,#2260,#2270);
#2290=CIRCLE('',#2280,9.3);
#2300=EDGE_CURVE('',#2120,#2220,#2290,.T.);
#2310=ORIENTED_EDGE('',*,*,#2300,.T.);
#2320=EDGE_LOOP('',(#2310,#2240,#2150,#2140));
#2330=FACE_OUTER_BOUND('',#2320,.T.);
#2340=ADVANCED_FACE('',(#2330),#2050,.F.);
#2350=CARTESIAN_POINT('',(0.,-22.5,0.));
#2360=DIRECTION('',(0.,-1.,0.));
#2370=DIRECTION('',(-1.,0.,0.));
#2380=AXIS2_PLACEMENT_3D('',#2350,#2360,#2370);
#2390=CYLINDRICAL_SURFACE('',#2380,2.);
#2400=CARTESIAN_POINT('',(-1.2,-22.5,1.6));
#2410=DIRECTION('',(-0.,1.,-0.));
#2420=VECTOR('',#2410,1.);
#2430=LINE('',#2400,#2420);
#2440=CARTESIAN_POINT('',(-1.2,0.,1.6));
#2450=VERTEX_POINT('',#2440);
#2460=EDGE_CURVE('',#220,#2450,#2430,.T.);
#2470=ORIENTED_EDGE('',*,*,#2460,.F.);
#2480=CARTESIAN_POINT('',(0.,0.,0.));
#2490=DIRECTION('',(0.,-1.,0.));
#2500=DIRECTION('',(-1.,0.,0.));
#2510=AXIS2_PLACEMENT_3D('',#2480,#2490,#2500);
#2520=CIRCLE('',#2510,2.);
#2530=CARTESIAN_POINT('',(-1.6,0.,1.2));
#2540=VERTEX_POINT('',#2530);
#2550=EDGE_CURVE('',#2450,#2540,#2520,.T.);
#2560=ORIENTED_EDGE('',*,*,#2550,.F.);
#2570=CARTESIAN_POINT('',(-1.6,-22.5,1.2));
#2580=DIRECTION('',(-0.,1.,-0.));
#2590=VECTOR('',#2580,1.);
#2600=LINE('',#2570,#2590);
#2610=EDGE_CURVE('',#310,#2540,#2600,.T.);
#2620=ORIENTED_EDGE('',*,*,#2610,.T.);
#2630=ORIENTED_EDGE('',*,*,#320,.T.);
#2640=EDGE_LOOP('',(#2630,#2620,#2560,#2470));
#2650=FACE_OUTER_BOUND('',#2640,.T.);
#2660=ADVANCED_FACE('',(#2650),#2390,.F.);
#2670=CARTESIAN_POINT('',(0.,-48.,0.));
#2680=DIRECTION('',(0.,1.,0.));
#2690=DIRECTION('',(1.,0.,0.));
#2700=AXIS2_PLACEMENT_3D('',#2670,#2680,#2690);
#2710=SPHERICAL_SURFACE('',#2700,56.);
#2720=CARTESIAN_POINT('',(0.,-48.,0.));
#2730=DIRECTION('',(0.,0.,-1.));
#2740=DIRECTION('',(1.,-0.,0.));
#2750=AXIS2_PLACEMENT_3D('',#2720,#2730,#2740);
#2760=CIRCLE('',#2750,56.);
#2770=CARTESIAN_POINT('',(-15.68,5.76000000000001,0.));
#2780=VERTEX_POINT('',#2770);
#2790=CARTESIAN_POINT('',(-1.02870331128378E-14,8.00000000000001,0.));
#2800=VERTEX_POINT('',#2790);
#2810=EDGE_CURVE('',#2780,#2800,#2760,.T.);
#2820=ORIENTED_EDGE('',*,*,#2810,.F.);
#2830=CARTESIAN_POINT('',(15.68,5.76000000000001,0.));
#2840=VERTEX_POINT('',#2830);
#2850=EDGE_CURVE('',#2800,#2840,#2760,.T.);
#2860=ORIENTED_EDGE('',*,*,#2850,.F.);
#2870=CARTESIAN_POINT('',(0.,5.76000000000001,0.));
#2880=DIRECTION('',(0.,1.,0.));
#2890=DIRECTION('',(1.,5.66440318686304E-17,0.));
#2900=AXIS2_PLACEMENT_3D('',#2870,#2880,#2890);
#2910=CIRCLE('',#2900,15.68);
#2920=EDGE_CURVE('',#2780,#2840,#2910,.T.);
#2930=ORIENTED_EDGE('',*,*,#2920,.T.);
#2940=EDGE_LOOP('',(#2930,#2860,#2820));
#2950=FACE_OUTER_BOUND('',#2940,.T.);
#2960=ADVANCED_FACE('',(#2950),#2710,.T.);
#2970=CARTESIAN_POINT('',(0.,0.,0.));
#2980=DIRECTION('',(0.,1.,0.));
#2990=DIRECTION('',(1.,0.,0.));
#3000=AXIS2_PLACEMENT_3D('',#2970,#2980,#2990);
#3010=TOROIDAL_SURFACE('',#3000,14.,6.);
#3020=CARTESIAN_POINT('',(14.,0.,0.));
#3030=DIRECTION('',(0.,0.,-1.));
#3040=DIRECTION('',(1.,0.,0.));
#3050=AXIS2_PLACEMENT_3D('',#3020,#3030,#3040);
#3060=CIRCLE('',#3050,6.);
#3070=EDGE_CURVE('',#2840,#1880,#3060,.T.);
#3080=ORIENTED_EDGE('',*,*,#3070,.F.);
#3090=EDGE_CURVE('',#1710,#1880,#1950,.T.);
#3100=ORIENTED_EDGE('',*,*,#3090,.T.);
#3110=CARTESIAN_POINT('',(-14.,0.,0.));
#3120=DIRECTION('',(0.,0.,1.));
#3130=DIRECTION('',(-1.,0.,0.));
#3140=AXIS2_PLACEMENT_3D('',#3110,#3120,#3130);
#3150=CIRCLE('',#3140,6.);
#3160=EDGE_CURVE('',#2780,#1710,#3150,.T.);
#3170=ORIENTED_EDGE('',*,*,#3160,.T.);
#3180=ORIENTED_EDGE('',*,*,#2920,.F.);
#3190=EDGE_LOOP('',(#3180,#3170,#3100,#3080));
#3200=FACE_OUTER_BOUND('',#3190,.T.);
#3210=ADVANCED_FACE('',(#3200),#3010,.T.);
#3220=CARTESIAN_POINT('',(0.,-13.6368121742552,0.));
#3230=DIRECTION('',(0.,1.,0.));
#3240=DIRECTION('',(1.,0.,0.));
#3250=AXIS2_PLACEMENT_3D('',#3220,#3230,#3240);
#3260=CYLINDRICAL_SURFACE('',#3250,9.3);
#3270=CARTESIAN_POINT('',(-9.3,-13.6368121742552,-1.13892152320704E-15))
;
#3280=DIRECTION('',(0.,1.,0.));
#3290=VECTOR('',#3280,1.);
#3300=LINE('',#3270,#3290);
#3310=CARTESIAN_POINT('',(-9.3,-17.5006250976868,0.));
#3320=VERTEX_POINT('',#3310);
#3330=EDGE_CURVE('',#3320,#2220,#3300,.T.);
#3340=ORIENTED_EDGE('',*,*,#3330,.F.);
#3350=EDGE_CURVE('',#2220,#2120,#2290,.T.);
#3360=ORIENTED_EDGE('',*,*,#3350,.F.);
#3370=CARTESIAN_POINT('',(9.3,-13.6368121742552,0.));
#3380=DIRECTION('',(0.,1.,0.));
#3390=VECTOR('',#3380,1.);
#3400=LINE('',#3370,#3390);
#3410=CARTESIAN_POINT('',(9.3,-17.5006250976868,0.));
#3420=VERTEX_POINT('',#3410);
#3430=EDGE_CURVE('',#3420,#2120,#3400,.T.);
#3440=ORIENTED_EDGE('',*,*,#3430,.T.);
#3450=CARTESIAN_POINT('',(0.,-17.5006250976868,0.));
#3460=DIRECTION('',(0.,1.,0.));
#3470=DIRECTION('',(1.,0.,0.));
#3480=AXIS2_PLACEMENT_3D('',#3450,#3460,#3470);
#3490=CIRCLE('',#3480,9.3);
#3500=EDGE_CURVE('',#3320,#3420,#3490,.T.);
#3510=ORIENTED_EDGE('',*,*,#3500,.T.);
#3520=EDGE_LOOP('',(#3510,#3440,#3360,#3340));
#3530=FACE_OUTER_BOUND('',#3520,.T.);
#3540=ADVANCED_FACE('',(#3530),#3260,.T.);
#3550=CARTESIAN_POINT('',(0.,-17.5006250976868,0.));
#3560=DIRECTION('',(0.,1.,0.));
#3570=DIRECTION('',(1.,0.,0.));
#3580=AXIS2_PLACEMENT_3D('',#3550,#3560,#3570);
#3590=TOROIDAL_SURFACE('',#3580,10.3,1.);
#3600=CARTESIAN_POINT('',(10.3,-17.5006250976868,0.));
#3610=DIRECTION('',(0.,0.,-1.));
#3620=DIRECTION('',(1.,0.,0.));
#3630=AXIS2_PLACEMENT_3D('',#3600,#3610,#3620);
#3640=CIRCLE('',#3630,1.);
#3650=EDGE_CURVE('',#1350,#3420,#3640,.T.);
#3660=ORIENTED_EDGE('',*,*,#3650,.T.);
#3670=ORIENTED_EDGE('',*,*,#1540,.T.);
#3680=CARTESIAN_POINT('',(-10.3,-17.5006250976868,0.));
#3690=DIRECTION('',(0.,0.,1.));
#3700=DIRECTION('',(-1.,0.,0.));
#3710=AXIS2_PLACEMENT_3D('',#3680,#3690,#3700);
#3720=CIRCLE('',#3710,1.);
#3730=EDGE_CURVE('',#1460,#3320,#3720,.T.);
#3740=ORIENTED_EDGE('',*,*,#3730,.F.);
#3750=ORIENTED_EDGE('',*,*,#3500,.F.);
#3760=EDGE_LOOP('',(#3750,#3740,#3670,#3660));
#3770=FACE_OUTER_BOUND('',#3760,.T.);
#3780=ADVANCED_FACE('',(#3770),#3590,.F.);
#3790=CARTESIAN_POINT('',(-1.6,-22.5,0.));
#3800=DIRECTION('',(1.,-0.,8.88178419700125E-16));
#3810=DIRECTION('',(8.88178419700125E-16,0.,-1.));
#3820=AXIS2_PLACEMENT_3D('',#3790,#3800,#3810);
#3830=PLANE('',#3820);
#3840=ORIENTED_EDGE('',*,*,#2610,.F.);
#3850=CARTESIAN_POINT('',(-1.6,0.,0.));
#3860=DIRECTION('',(-8.88178419700125E-16,0.,1.));
#3870=VECTOR('',#3860,1.);
#3880=LINE('',#3850,#3870);
#3890=CARTESIAN_POINT('',(-1.6,0.,-1.2));
#3900=VERTEX_POINT('',#3890);
#3910=EDGE_CURVE('',#3900,#2540,#3880,.T.);
#3920=ORIENTED_EDGE('',*,*,#3910,.T.);
#3930=CARTESIAN_POINT('',(-1.6,-22.5,-1.2));
#3940=DIRECTION('',(-0.,1.,0.));
#3950=VECTOR('',#3940,1.);
#3960=LINE('',#3930,#3950);
#3970=EDGE_CURVE('',#390,#3900,#3960,.T.);
#3980=ORIENTED_EDGE('',*,*,#3970,.T.);
#3990=ORIENTED_EDGE('',*,*,#400,.T.);
#4000=EDGE_LOOP('',(#3990,#3980,#3920,#3840));
#4010=FACE_OUTER_BOUND('',#4000,.T.);
#4020=ADVANCED_FACE('',(#4010),#3830,.T.);
#4030=CARTESIAN_POINT('',(19.25,0.,0.));
#4040=DIRECTION('',(-0.,1.,0.));
#4050=DIRECTION('',(1.,0.,0.));
#4060=AXIS2_PLACEMENT_3D('',#4030,#4040,#4050);
#4070=PLANE('',#4060);
#4080=CARTESIAN_POINT('',(0.,0.,0.));
#4090=DIRECTION('',(-0.,1.,-0.));
#4100=DIRECTION('',(-1.,0.,0.));
#4110=AXIS2_PLACEMENT_3D('',#4080,#4090,#4100);
#4120=CIRCLE('',#4110,2.);
#4130=CARTESIAN_POINT('',(1.6,0.,-1.2));
#4140=VERTEX_POINT('',#4130);
#4150=CARTESIAN_POINT('',(1.2,0.,-1.6));
#4160=VERTEX_POINT('',#4150);
#4170=EDGE_CURVE('',#4140,#4160,#4120,.T.);
#4180=ORIENTED_EDGE('',*,*,#4170,.F.);
#4190=CARTESIAN_POINT('',(0.,0.,-1.6));
#4200=DIRECTION('',(1.,0.,0.));
#4210=VECTOR('',#4200,1.);
#4220=LINE('',#4190,#4210);
#4230=CARTESIAN_POINT('',(-1.2,0.,-1.6));
#4240=VERTEX_POINT('',#4230);
#4250=EDGE_CURVE('',#4240,#4160,#4220,.T.);
#4260=ORIENTED_EDGE('',*,*,#4250,.T.);
#4270=CARTESIAN_POINT('',(0.,0.,0.));
#4280=DIRECTION('',(-0.,1.,-0.));
#4290=DIRECTION('',(-1.,0.,0.));
#4300=AXIS2_PLACEMENT_3D('',#4270,#4280,#4290);
#4310=CIRCLE('',#4300,2.);
#4320=EDGE_CURVE('',#4240,#3900,#4310,.T.);
#4330=ORIENTED_EDGE('',*,*,#4320,.F.);
#4340=ORIENTED_EDGE('',*,*,#3910,.F.);
#4350=ORIENTED_EDGE('',*,*,#2550,.T.);
#4360=CARTESIAN_POINT('',(0.,0.,1.6));
#4370=DIRECTION('',(1.,0.,-0.));
#4380=VECTOR('',#4370,1.);
#4390=LINE('',#4360,#4380);
#4400=CARTESIAN_POINT('',(1.2,0.,1.6));
#4410=VERTEX_POINT('',#4400);
#4420=EDGE_CURVE('',#2450,#4410,#4390,.T.);
#4430=ORIENTED_EDGE('',*,*,#4420,.F.);
#4440=CARTESIAN_POINT('',(0.,0.,0.));
#4450=DIRECTION('',(0.,-1.,0.));
#4460=DIRECTION('',(-1.,0.,0.));
#4470=AXIS2_PLACEMENT_3D('',#4440,#4450,#4460);
#4480=CIRCLE('',#4470,2.);
#4490=CARTESIAN_POINT('',(1.6,0.,1.2));
#4500=VERTEX_POINT('',#4490);
#4510=EDGE_CURVE('',#4500,#4410,#4480,.T.);
#4520=ORIENTED_EDGE('',*,*,#4510,.T.);
#4530=CARTESIAN_POINT('',(1.6,0.,0.));
#4540=DIRECTION('',(8.88178419700125E-16,0.,-1.));
#4550=VECTOR('',#4540,1.);
#4560=LINE('',#4530,#4550);
#4570=EDGE_CURVE('',#4500,#4140,#4560,.T.);
#4580=ORIENTED_EDGE('',*,*,#4570,.F.);
#4590=EDGE_LOOP('',(#4580,#4520,#4430,#4350,#4340,#4330,#4260,#4180));
#4600=FACE_OUTER_BOUND('',#4590,.T.);
#4610=ADVANCED_FACE('',(#4600),#4070,.F.);
#4620=CARTESIAN_POINT('',(1.6,-22.5,1.2));
#4630=DIRECTION('',(-1.,0.,-8.88178419700125E-16));
#4640=DIRECTION('',(-8.88178419700125E-16,-0.,1.));
#4650=AXIS2_PLACEMENT_3D('',#4620,#4630,#4640);
#4660=PLANE('',#4650);
#4670=CARTESIAN_POINT('',(1.6,-22.5,-1.2));
#4680=DIRECTION('',(-0.,1.,0.));
#4690=VECTOR('',#4680,1.);
#4700=LINE('',#4670,#4690);
#4710=EDGE_CURVE('',#650,#4140,#4700,.T.);
#4720=ORIENTED_EDGE('',*,*,#4710,.F.);
#4730=ORIENTED_EDGE('',*,*,#4570,.T.);
#4740=CARTESIAN_POINT('',(1.6,-22.5,1.2));
#4750=DIRECTION('',(-0.,1.,-0.));
#4760=VECTOR('',#4750,1.);
#4770=LINE('',#4740,#4760);
#4780=EDGE_CURVE('',#120,#4500,#4770,.T.);
#4790=ORIENTED_EDGE('',*,*,#4780,.T.);
#4800=ORIENTED_EDGE('',*,*,#720,.T.);
#4810=EDGE_LOOP('',(#4800,#4790,#4730,#4720));
#4820=FACE_OUTER_BOUND('',#4810,.T.);
#4830=ADVANCED_FACE('',(#4820),#4660,.T.);
#4840=CARTESIAN_POINT('',(0.,-22.5,0.));
#4850=DIRECTION('',(0.,-1.,0.));
#4860=DIRECTION('',(-1.,0.,0.));
#4870=AXIS2_PLACEMENT_3D('',#4840,#4850,#4860);
#4880=CYLINDRICAL_SURFACE('',#4870,2.);
#4890=ORIENTED_EDGE('',*,*,#4780,.F.);
#4900=ORIENTED_EDGE('',*,*,#4510,.F.);
#4910=CARTESIAN_POINT('',(1.2,-22.5,1.6));
#4920=DIRECTION('',(-0.,1.,-0.));
#4930=VECTOR('',#4920,1.);
#4940=LINE('',#4910,#4930);
#4950=EDGE_CURVE('',#140,#4410,#4940,.T.);
#4960=ORIENTED_EDGE('',*,*,#4950,.T.);
#4970=ORIENTED_EDGE('',*,*,#150,.T.);
#4980=EDGE_LOOP('',(#4970,#4960,#4900,#4890));
#4990=FACE_OUTER_BOUND('',#4980,.T.);
#5000=ADVANCED_FACE('',(#4990),#4880,.F.);
#5010=CARTESIAN_POINT('',(-1.2,-22.5,1.6));
#5020=DIRECTION('',(-0.,0.,-1.));
#5030=DIRECTION('',(-1.,0.,0.));
#5040=AXIS2_PLACEMENT_3D('',#5010,#5020,#5030);
#5050=PLANE('',#5040);
#5060=ORIENTED_EDGE('',*,*,#4950,.F.);
#5070=ORIENTED_EDGE('',*,*,#4420,.T.);
#5080=ORIENTED_EDGE('',*,*,#2460,.T.);
#5090=ORIENTED_EDGE('',*,*,#230,.T.);
#5100=EDGE_LOOP('',(#5090,#5080,#5070,#5060));
#5110=FACE_OUTER_BOUND('',#5100,.T.);
#5120=ADVANCED_FACE('',(#5110),#5050,.T.);
#5130=CARTESIAN_POINT('',(0.,-22.5,0.));
#5140=DIRECTION('',(0.,-1.,0.));
#5150=DIRECTION('',(-1.,0.,0.));
#5160=AXIS2_PLACEMENT_3D('',#5130,#5140,#5150);
#5170=CYLINDRICAL_SURFACE('',#5160,2.);
#5180=ORIENTED_EDGE('',*,*,#490,.F.);
#5190=ORIENTED_EDGE('',*,*,#3970,.F.);
#5200=ORIENTED_EDGE('',*,*,#4320,.T.);
#5210=CARTESIAN_POINT('',(-1.2,-22.5,-1.6));
#5220=DIRECTION('',(-0.,1.,0.));
#5230=VECTOR('',#5220,1.);
#5240=LINE('',#5210,#5230);
#5250=EDGE_CURVE('',#480,#4240,#5240,.T.);
#5260=ORIENTED_EDGE('',*,*,#5250,.T.);
#5270=EDGE_LOOP('',(#5260,#5200,#5190,#5180));
#5280=FACE_OUTER_BOUND('',#5270,.T.);
#5290=ADVANCED_FACE('',(#5280),#5170,.F.);
#5300=CARTESIAN_POINT('',(0.,-22.5,0.));
#5310=DIRECTION('',(0.,-1.,0.));
#5320=DIRECTION('',(-1.,0.,0.));
#5330=AXIS2_PLACEMENT_3D('',#5300,#5310,#5320);
#5340=CYLINDRICAL_SURFACE('',#5330,2.);
#5350=ORIENTED_EDGE('',*,*,#660,.F.);
#5360=CARTESIAN_POINT('',(1.2,-22.5,-1.6));
#5370=DIRECTION('',(-0.,1.,0.));
#5380=VECTOR('',#5370,1.);
#5390=LINE('',#5360,#5380);
#5400=EDGE_CURVE('',#560,#4160,#5390,.T.);
#5410=ORIENTED_EDGE('',*,*,#5400,.F.);
#5420=ORIENTED_EDGE('',*,*,#4170,.T.);
#5430=ORIENTED_EDGE('',*,*,#4710,.T.);
#5440=EDGE_LOOP('',(#5430,#5420,#5410,#5350));
#5450=FACE_OUTER_BOUND('',#5440,.T.);
#5460=ADVANCED_FACE('',(#5450),#5340,.F.);
#5470=CARTESIAN_POINT('',(-1.2,-22.5,-1.6));
#5480=DIRECTION('',(0.,0.,-1.));
#5490=DIRECTION('',(-1.,0.,0.));
#5500=AXIS2_PLACEMENT_3D('',#5470,#5480,#5490);
#5510=PLANE('',#5500);
#5520=ORIENTED_EDGE('',*,*,#570,.F.);
#5530=ORIENTED_EDGE('',*,*,#5250,.F.);
#5540=ORIENTED_EDGE('',*,*,#4250,.F.);
#5550=ORIENTED_EDGE('',*,*,#5400,.T.);
#5560=EDGE_LOOP('',(#5550,#5540,#5530,#5520));
#5570=FACE_OUTER_BOUND('',#5560,.T.);
#5580=ADVANCED_FACE('',(#5570),#5510,.F.);
#5590=CARTESIAN_POINT('',(0.,-13.6368121742552,0.));
#5600=DIRECTION('',(0.,1.,0.));
#5610=DIRECTION('',(1.,0.,0.));
#5620=AXIS2_PLACEMENT_3D('',#5590,#5600,#5610);
#5630=CYLINDRICAL_SURFACE('',#5620,9.3);
#5640=ORIENTED_EDGE('',*,*,#3330,.T.);
#5650=EDGE_CURVE('',#3420,#3320,#3490,.T.);
#5660=ORIENTED_EDGE('',*,*,#5650,.T.);
#5670=ORIENTED_EDGE('',*,*,#3430,.F.);
#5680=ORIENTED_EDGE('',*,*,#2300,.F.);
#5690=EDGE_LOOP('',(#5680,#5670,#5660,#5640));
#5700=FACE_OUTER_BOUND('',#5690,.T.);
#5710=ADVANCED_FACE('',(#5700),#5630,.T.);
#5720=CARTESIAN_POINT('',(0.,-21.,0.));
#5730=DIRECTION('',(0.,1.,0.));
#5740=DIRECTION('',(1.,0.,0.));
#5750=AXIS2_PLACEMENT_3D('',#5720,#5730,#5740);
#5760=CYLINDRICAL_SURFACE('',#5750,11.25);
#5770=ORIENTED_EDGE('',*,*,#850,.T.);
#5780=ORIENTED_EDGE('',*,*,#1030,.F.);
#5790=ORIENTED_EDGE('',*,*,#1380,.F.);
#5800=ORIENTED_EDGE('',*,*,#1120,.T.);
#5810=EDGE_LOOP('',(#5800,#5790,#5780,#5770));
#5820=FACE_OUTER_BOUND('',#5810,.T.);
#5830=ADVANCED_FACE('',(#5820),#5760,.T.);
#5840=CARTESIAN_POINT('',(0.,-5.79555495773441,0.));
#5850=DIRECTION('',(0.,1.,0.));
#5860=DIRECTION('',(1.,0.,0.));
#5870=AXIS2_PLACEMENT_3D('',#5840,#5850,#5860);
#5880=CONICAL_SURFACE('',#5870,15.5529142706151,1.30899693899575);
#5890=EDGE_CURVE('',#1690,#1800,#1780,.T.);
#5900=ORIENTED_EDGE('',*,*,#5890,.T.);
#5910=ORIENTED_EDGE('',*,*,#1720,.F.);
#5920=ORIENTED_EDGE('',*,*,#3090,.F.);
#5930=ORIENTED_EDGE('',*,*,#1890,.T.);
#5940=EDGE_LOOP('',(#5930,#5920,#5910,#5900));
#5950=FACE_OUTER_BOUND('',#5940,.T.);
#5960=ADVANCED_FACE('',(#5950),#5880,.T.);
#5970=CARTESIAN_POINT('',(0.,0.,0.));
#5980=DIRECTION('',(0.,1.,0.));
#5990=DIRECTION('',(1.,0.,0.));
#6000=AXIS2_PLACEMENT_3D('',#5970,#5980,#5990);
#6010=TOROIDAL_SURFACE('',#6000,14.,6.);
#6020=ORIENTED_EDGE('',*,*,#3070,.T.);
#6030=EDGE_CURVE('',#2840,#2780,#2910,.T.);
#6040=ORIENTED_EDGE('',*,*,#6030,.F.);
#6050=ORIENTED_EDGE('',*,*,#3160,.F.);
#6060=ORIENTED_EDGE('',*,*,#1960,.T.);
#6070=EDGE_LOOP('',(#6060,#6050,#6040,#6020));
#6080=FACE_OUTER_BOUND('',#6070,.T.);
#6090=ADVANCED_FACE('',(#6080),#6010,.T.);
#6100=CARTESIAN_POINT('',(0.,-17.5006250976868,0.));
#6110=DIRECTION('',(0.,1.,0.));
#6120=DIRECTION('',(1.,0.,0.));
#6130=AXIS2_PLACEMENT_3D('',#6100,#6110,#6120);
#6140=TOROIDAL_SURFACE('',#6130,10.3,1.);
#6150=ORIENTED_EDGE('',*,*,#5650,.F.);
#6160=ORIENTED_EDGE('',*,*,#3730,.T.);
#6170=EDGE_CURVE('',#1350,#1460,#1530,.T.);
#6180=ORIENTED_EDGE('',*,*,#6170,.T.);
#6190=ORIENTED_EDGE('',*,*,#3650,.F.);
#6200=EDGE_LOOP('',(#6190,#6180,#6160,#6150));
#6210=FACE_OUTER_BOUND('',#6200,.T.);
#6220=ADVANCED_FACE('',(#6210),#6140,.F.);
#6230=CARTESIAN_POINT('',(0.,-48.,0.));
#6240=DIRECTION('',(0.,1.,0.));
#6250=DIRECTION('',(1.,0.,0.));
#6260=AXIS2_PLACEMENT_3D('',#6230,#6240,#6250);
#6270=SPHERICAL_SURFACE('',#6260,56.);
#6280=ORIENTED_EDGE('',*,*,#6030,.T.);
#6290=ORIENTED_EDGE('',*,*,#2850,.T.);
#6300=ORIENTED_EDGE('',*,*,#2810,.T.);
#6310=EDGE_LOOP('',(#6300,#6290,#6280));
#6320=FACE_OUTER_BOUND('',#6310,.T.);
#6330=ADVANCED_FACE('',(#6320),#6270,.T.);
#6340=CARTESIAN_POINT('',(0.,-19.5,0.));
#6350=DIRECTION('',(0.,1.,0.));
#6360=DIRECTION('',(1.,0.,0.));
#6370=AXIS2_PLACEMENT_3D('',#6340,#6350,#6360);
#6380=TOROIDAL_SURFACE('',#6370,10.25,1.);
#6390=ORIENTED_EDGE('',*,*,#1360,.T.);
#6400=ORIENTED_EDGE('',*,*,#6170,.F.);
#6410=ORIENTED_EDGE('',*,*,#1470,.F.);
#6420=ORIENTED_EDGE('',*,*,#1190,.T.);
#6430=EDGE_LOOP('',(#6420,#6410,#6400,#6390));
#6440=FACE_OUTER_BOUND('',#6430,.T.);
#6450=ADVANCED_FACE('',(#6440),#6380,.T.);
#6460=CARTESIAN_POINT('',(0.,-9.77299925082366,0.));
#6470=DIRECTION('',(0.,1.,0.));
#6480=DIRECTION('',(1.,0.,0.));
#6490=AXIS2_PLACEMENT_3D('',#6460,#6470,#6480);
#6500=TOROIDAL_SURFACE('',#6490,12.3,3.00000000000001);
#6510=ORIENTED_EDGE('',*,*,#3350,.T.);
#6520=ORIENTED_EDGE('',*,*,#2230,.F.);
#6530=ORIENTED_EDGE('',*,*,#5890,.F.);
#6540=ORIENTED_EDGE('',*,*,#2130,.T.);
#6550=EDGE_LOOP('',(#6540,#6530,#6520,#6510));
#6560=FACE_OUTER_BOUND('',#6550,.T.);
#6570=ADVANCED_FACE('',(#6560),#6500,.F.);
#6580=CLOSED_SHELL('',(#910,#1230,#1580,#2000,#2340,#2660,#2960,#3210,
#3540,#3780,#4020,#4610,#4830,#5000,#5120,#5290,#5460,#5580,#5710,#5830,
#5960,#6090,#6220,#6330,#6450,#6570));
#6590=MANIFOLD_SOLID_BREP('',#6580);
#6600=CARTESIAN_POINT('',(0.,0.,0.));
#6610=DIRECTION('',(0.,0.,1.));
#6620=DIRECTION('',(1.,0.,0.));
#6630=AXIS2_PLACEMENT_3D('',#6600,#6610,#6620);
#6640=APPLICATION_CONTEXT(' ');
#6650=APPLICATION_PROTOCOL_DEFINITION(' ','automotive_design',1998,#6640
);
#6660=PRODUCT_CONTEXT('',#6640,'mechanical');
#6670=PRODUCT_DEFINITION_CONTEXT('part definition',#6640,'design');
#6680=PRODUCT('0385-40','0385-40','',(#6660));
#6690=PRODUCT_RELATED_PRODUCT_CATEGORY('part',' ',(#6680));
#6700=PRODUCT_DEFINITION_FORMATION_WITH_SPECIFIED_SOURCE('','',#6680,
.BOUGHT.);
#6710=PRODUCT_DEFINITION('',' ',#6700,#6670);
#6720=PRODUCT_DEFINITION_SHAPE('','',#6710);
#6730=DIMENSIONAL_EXPONENTS(1.,0.,0.,0.,0.,0.,0.);
#6740=DIMENSIONAL_EXPONENTS(0.,0.,0.,0.,0.,0.,0.);
#6750=DIMENSIONAL_EXPONENTS(0.,0.,0.,0.,0.,0.,0.);
#6760=(LENGTH_UNIT() NAMED_UNIT(*) SI_UNIT(.MILLI.,.METRE.));
#6770=(NAMED_UNIT(*) PLANE_ANGLE_UNIT() SI_UNIT($,.RADIAN.));
#6780=(NAMED_UNIT(*) SI_UNIT($,.STERADIAN.) SOLID_ANGLE_UNIT());
#6790=(GEOMETRIC_REPRESENTATION_CONTEXT(3) 
GLOBAL_UNCERTAINTY_ASSIGNED_CONTEXT((#6800)) 
GLOBAL_UNIT_ASSIGNED_CONTEXT((#6760,#6770,#6780)) REPRESENTATION_CONTEXT
('',''));
#6800=UNCERTAINTY_MEASURE_WITH_UNIT(LENGTH_MEASURE(1.E-6),#6760,
'distance_accuracy_value','maximum gap value');
#6810=ADVANCED_BREP_SHAPE_REPRESENTATION('',(#6630,#6590),#6790);
#6820=SHAPE_DEFINITION_REPRESENTATION(#6720,#6810);
#6830=COLOUR_RGB('',0.600000023841858,0.600000023841858,
0.600000023841858);
#6840=FILL_AREA_STYLE_COLOUR('',#6830);
#6850=FILL_AREA_STYLE('',(#6840));
#6860=SURFACE_STYLE_FILL_AREA(#6850);
#6870=SURFACE_SIDE_STYLE('',(#6860));
#6880=SURFACE_STYLE_USAGE(.BOTH.,#6870);
#6890=PRESENTATION_STYLE_ASSIGNMENT((#6880));
#6900=STYLED_ITEM('',(#6890),#6590);
#6910=DRAUGHTING_MODEL('',(#6900),#6790);
ENDSEC;
END-ISO-10303-21;
