ISO-10303-21;
HEADER;
FILE_DESCRIPTION(('Creo Elements/Direct Modeling STEP Export'),'2;1');
FILE_NAME('1659-18.stp','2018-12-04T10:08:38',(''),(''),
'Creo Elements/Direct Modeling STEP processor for AP214 (Solid Model)',
'Creo Elements/Direct Modeling 20.0  12-Nov-2016 (C) Parametric Technolo
gy GmbH','');
FILE_SCHEMA(('AUTOMOTIVE_DESIGN { 1 0 10303 214 1 1 1 1 }'));
ENDSEC;
DATA;
#10=CARTESIAN_POINT('',(0.,4.,0.));
#20=DIRECTION('',(-0.,-1.,-0.));
#30=DIRECTION('',(-1.,0.,0.));
#40=AXIS2_PLACEMENT_3D('',#10,#20,#30);
#50=CYLINDRICAL_SURFACE('',#40,9.);
#60=CARTESIAN_POINT('',(9.,4.,-1.10218211923262E-15));
#70=DIRECTION('',(-0.,-1.,-0.));
#80=VECTOR('',#70,1.);
#90=LINE('',#60,#80);
#100=CARTESIAN_POINT('',(9.,8.,-1.10218211923262E-15));
#110=VERTEX_POINT('',#100);
#120=CARTESIAN_POINT('',(9.,0.,-1.10218211923262E-15));
#130=VERTEX_POINT('',#120);
#140=EDGE_CURVE('',#110,#130,#90,.T.);
#150=ORIENTED_EDGE('',*,*,#140,.T.);
#160=CARTESIAN_POINT('',(0.,8.,0.));
#170=DIRECTION('',(0.,1.,0.));
#180=DIRECTION('',(-1.,0.,0.));
#190=AXIS2_PLACEMENT_3D('',#160,#170,#180);
#200=CIRCLE('',#190,9.);
#210=CARTESIAN_POINT('',(-9.,8.,0.));
#220=VERTEX_POINT('',#210);
#230=EDGE_CURVE('',#110,#220,#200,.T.);
#240=ORIENTED_EDGE('',*,*,#230,.F.);
#250=CARTESIAN_POINT('',(-9.,4.,0.));
#260=DIRECTION('',(-0.,-1.,-0.));
#270=VECTOR('',#260,1.);
#280=LINE('',#250,#270);
#290=CARTESIAN_POINT('',(-9.,0.,0.));
#300=VERTEX_POINT('',#290);
#310=EDGE_CURVE('',#220,#300,#280,.T.);
#320=ORIENTED_EDGE('',*,*,#310,.F.);
#330=CARTESIAN_POINT('',(0.,0.,0.));
#340=DIRECTION('',(0.,1.,0.));
#350=DIRECTION('',(-1.,0.,0.));
#360=AXIS2_PLACEMENT_3D('',#330,#340,#350);
#370=CIRCLE('',#360,9.);
#380=EDGE_CURVE('',#130,#300,#370,.T.);
#390=ORIENTED_EDGE('',*,*,#380,.T.);
#400=EDGE_LOOP('',(#390,#320,#240,#150));
#410=FACE_OUTER_BOUND('',#400,.T.);
#420=ADVANCED_FACE('',(#410),#50,.T.);
#430=CARTESIAN_POINT('',(-4.5,0.,0.));
#440=DIRECTION('',(0.,1.,0.));
#450=DIRECTION('',(1.,-0.,0.));
#460=AXIS2_PLACEMENT_3D('',#430,#440,#450);
#470=PLANE('',#460);
#480=EDGE_CURVE('',#300,#130,#370,.T.);
#490=ORIENTED_EDGE('',*,*,#480,.F.);
#500=ORIENTED_EDGE('',*,*,#380,.F.);
#510=EDGE_LOOP('',(#500,#490));
#520=FACE_OUTER_BOUND('',#510,.T.);
#530=CARTESIAN_POINT('',(0.,0.,0.));
#540=DIRECTION('',(0.,-1.,0.));
#550=DIRECTION('',(1.,0.,0.));
#560=AXIS2_PLACEMENT_3D('',#530,#540,#550);
#570=CIRCLE('',#560,1.65);
#580=CARTESIAN_POINT('',(1.65,0.,0.));
#590=VERTEX_POINT('',#580);
#600=CARTESIAN_POINT('',(-1.65,0.,2.02066721859313E-16));
#610=VERTEX_POINT('',#600);
#620=EDGE_CURVE('',#590,#610,#570,.T.);
#630=ORIENTED_EDGE('',*,*,#620,.F.);
#640=EDGE_CURVE('',#610,#590,#570,.T.);
#650=ORIENTED_EDGE('',*,*,#640,.F.);
#660=EDGE_LOOP('',(#650,#630));
#670=FACE_BOUND('',#660,.T.);
#680=ADVANCED_FACE('',(#520,#670),#470,.F.);
#690=CARTESIAN_POINT('',(-4.25,26.5,0.));
#700=DIRECTION('',(0.,1.,0.));
#710=DIRECTION('',(1.,-0.,0.));
#720=AXIS2_PLACEMENT_3D('',#690,#700,#710);
#730=PLANE('',#720);
#740=CARTESIAN_POINT('',(0.,26.5,0.));
#750=DIRECTION('',(-0.,-1.,-0.));
#760=DIRECTION('',(-1.,0.,0.));
#770=AXIS2_PLACEMENT_3D('',#740,#750,#760);
#780=CIRCLE('',#770,9.);
#790=CARTESIAN_POINT('',(-9.,26.5,0.));
#800=VERTEX_POINT('',#790);
#810=CARTESIAN_POINT('',(9.,26.5,-1.10218211923262E-15));
#820=VERTEX_POINT('',#810);
#830=EDGE_CURVE('',#800,#820,#780,.T.);
#840=ORIENTED_EDGE('',*,*,#830,.F.);
#850=EDGE_CURVE('',#820,#800,#780,.T.);
#860=ORIENTED_EDGE('',*,*,#850,.F.);
#870=EDGE_LOOP('',(#860,#840));
#880=FACE_OUTER_BOUND('',#870,.T.);
#890=ADVANCED_FACE('',(#880),#730,.T.);
#900=CARTESIAN_POINT('',(-8.5,8.,0.));
#910=DIRECTION('',(-0.,-1.,-0.));
#920=DIRECTION('',(-1.,0.,0.));
#930=AXIS2_PLACEMENT_3D('',#900,#910,#920);
#940=PLANE('',#930);
#950=EDGE_CURVE('',#220,#110,#200,.T.);
#960=ORIENTED_EDGE('',*,*,#950,.T.);
#970=ORIENTED_EDGE('',*,*,#230,.T.);
#980=EDGE_LOOP('',(#970,#960));
#990=FACE_OUTER_BOUND('',#980,.T.);
#1000=CARTESIAN_POINT('',(0.,8.,0.));
#1010=DIRECTION('',(0.,1.,0.));
#1020=DIRECTION('',(-1.,0.,0.));
#1030=AXIS2_PLACEMENT_3D('',#1000,#1010,#1020);
#1040=CIRCLE('',#1030,8.);
#1050=CARTESIAN_POINT('',(-8.,8.,0.));
#1060=VERTEX_POINT('',#1050);
#1070=CARTESIAN_POINT('',(8.,8.,-9.79717439317882E-16));
#1080=VERTEX_POINT('',#1070);
#1090=EDGE_CURVE('',#1060,#1080,#1040,.T.);
#1100=ORIENTED_EDGE('',*,*,#1090,.F.);
#1110=EDGE_CURVE('',#1080,#1060,#1040,.T.);
#1120=ORIENTED_EDGE('',*,*,#1110,.F.);
#1130=EDGE_LOOP('',(#1120,#1100));
#1140=FACE_BOUND('',#1130,.T.);
#1150=ADVANCED_FACE('',(#990,#1140),#940,.F.);
#1160=CARTESIAN_POINT('',(0.,19.25,0.));
#1170=DIRECTION('',(-0.,-1.,-0.));
#1180=DIRECTION('',(-1.,0.,0.));
#1190=AXIS2_PLACEMENT_3D('',#1160,#1170,#1180);
#1200=CYLINDRICAL_SURFACE('',#1190,9.);
#1210=CARTESIAN_POINT('',(9.,19.25,-1.10218211923262E-15));
#1220=DIRECTION('',(-0.,-1.,-0.));
#1230=VECTOR('',#1220,1.);
#1240=LINE('',#1210,#1230);
#1250=CARTESIAN_POINT('',(9.,12.5,-1.10218211923262E-15));
#1260=VERTEX_POINT('',#1250);
#1270=EDGE_CURVE('',#820,#1260,#1240,.T.);
#1280=ORIENTED_EDGE('',*,*,#1270,.F.);
#1290=CARTESIAN_POINT('',(0.,12.5,0.));
#1300=DIRECTION('',(0.,1.,0.));
#1310=DIRECTION('',(-1.,0.,0.));
#1320=AXIS2_PLACEMENT_3D('',#1290,#1300,#1310);
#1330=CIRCLE('',#1320,9.);
#1340=CARTESIAN_POINT('',(-9.,12.5,0.));
#1350=VERTEX_POINT('',#1340);
#1360=EDGE_CURVE('',#1350,#1260,#1330,.T.);
#1370=ORIENTED_EDGE('',*,*,#1360,.T.);
#1380=CARTESIAN_POINT('',(-9.,19.25,0.));
#1390=DIRECTION('',(-0.,-1.,-0.));
#1400=VECTOR('',#1390,1.);
#1410=LINE('',#1380,#1400);
#1420=EDGE_CURVE('',#800,#1350,#1410,.T.);
#1430=ORIENTED_EDGE('',*,*,#1420,.T.);
#1440=ORIENTED_EDGE('',*,*,#850,.T.);
#1450=EDGE_LOOP('',(#1440,#1430,#1370,#1280));
#1460=FACE_OUTER_BOUND('',#1450,.T.);
#1470=ADVANCED_FACE('',(#1460),#1200,.T.);
#1480=CARTESIAN_POINT('',(-8.5,12.5,0.));
#1490=DIRECTION('',(0.,1.,0.));
#1500=DIRECTION('',(1.,-0.,0.));
#1510=AXIS2_PLACEMENT_3D('',#1480,#1490,#1500);
#1520=PLANE('',#1510);
#1530=CARTESIAN_POINT('',(0.,12.5,0.));
#1540=DIRECTION('',(0.,1.,0.));
#1550=DIRECTION('',(-1.,0.,0.));
#1560=AXIS2_PLACEMENT_3D('',#1530,#1540,#1550);
#1570=CIRCLE('',#1560,8.);
#1580=CARTESIAN_POINT('',(-8.,12.5,0.));
#1590=VERTEX_POINT('',#1580);
#1600=CARTESIAN_POINT('',(8.,12.5,-9.79717439317882E-16));
#1610=VERTEX_POINT('',#1600);
#1620=EDGE_CURVE('',#1590,#1610,#1570,.T.);
#1630=ORIENTED_EDGE('',*,*,#1620,.T.);
#1640=EDGE_CURVE('',#1610,#1590,#1570,.T.);
#1650=ORIENTED_EDGE('',*,*,#1640,.T.);
#1660=EDGE_LOOP('',(#1650,#1630));
#1670=FACE_BOUND('',#1660,.T.);
#1680=ORIENTED_EDGE('',*,*,#1360,.F.);
#1690=EDGE_CURVE('',#1260,#1350,#1330,.T.);
#1700=ORIENTED_EDGE('',*,*,#1690,.F.);
#1710=EDGE_LOOP('',(#1700,#1680));
#1720=FACE_OUTER_BOUND('',#1710,.T.);
#1730=ADVANCED_FACE('',(#1670,#1720),#1520,.F.);
#1740=CARTESIAN_POINT('',(0.,12.,0.));
#1750=DIRECTION('',(-0.,-1.,-0.));
#1760=DIRECTION('',(-1.,0.,0.));
#1770=AXIS2_PLACEMENT_3D('',#1740,#1750,#1760);
#1780=CYLINDRICAL_SURFACE('',#1770,8.);
#1790=CARTESIAN_POINT('',(8.,12.,-9.79717439317882E-16));
#1800=DIRECTION('',(-0.,-1.,-0.));
#1810=VECTOR('',#1800,1.);
#1820=LINE('',#1790,#1810);
#1830=CARTESIAN_POINT('',(8.,11.5,-9.79717439317882E-16));
#1840=VERTEX_POINT('',#1830);
#1850=EDGE_CURVE('',#1610,#1840,#1820,.T.);
#1860=ORIENTED_EDGE('',*,*,#1850,.T.);
#1870=ORIENTED_EDGE('',*,*,#1640,.F.);
#1880=CARTESIAN_POINT('',(-8.,12.,0.));
#1890=DIRECTION('',(-0.,-1.,-0.));
#1900=VECTOR('',#1890,1.);
#1910=LINE('',#1880,#1900);
#1920=CARTESIAN_POINT('',(-8.,11.5,0.));
#1930=VERTEX_POINT('',#1920);
#1940=EDGE_CURVE('',#1590,#1930,#1910,.T.);
#1950=ORIENTED_EDGE('',*,*,#1940,.F.);
#1960=CARTESIAN_POINT('',(0.,11.5,0.));
#1970=DIRECTION('',(0.,1.,0.));
#1980=DIRECTION('',(-1.,0.,0.));
#1990=AXIS2_PLACEMENT_3D('',#1960,#1970,#1980);
#2000=CIRCLE('',#1990,8.);
#2010=EDGE_CURVE('',#1840,#1930,#2000,.T.);
#2020=ORIENTED_EDGE('',*,*,#2010,.T.);
#2030=EDGE_LOOP('',(#2020,#1950,#1870,#1860));
#2040=FACE_OUTER_BOUND('',#2030,.T.);
#2050=ADVANCED_FACE('',(#2040),#1780,.T.);
#2060=CARTESIAN_POINT('',(-8.5,11.5,0.));
#2070=DIRECTION('',(-0.,-1.,-0.));
#2080=DIRECTION('',(-1.,0.,0.));
#2090=AXIS2_PLACEMENT_3D('',#2060,#2070,#2080);
#2100=PLANE('',#2090);
#2110=CARTESIAN_POINT('',(0.,11.5,0.));
#2120=DIRECTION('',(0.,1.,0.));
#2130=DIRECTION('',(-1.,0.,0.));
#2140=AXIS2_PLACEMENT_3D('',#2110,#2120,#2130);
#2150=CIRCLE('',#2140,9.);
#2160=CARTESIAN_POINT('',(-9.,11.5,0.));
#2170=VERTEX_POINT('',#2160);
#2180=CARTESIAN_POINT('',(9.,11.5,-1.10218211923262E-15));
#2190=VERTEX_POINT('',#2180);
#2200=EDGE_CURVE('',#2170,#2190,#2150,.T.);
#2210=ORIENTED_EDGE('',*,*,#2200,.T.);
#2220=EDGE_CURVE('',#2190,#2170,#2150,.T.);
#2230=ORIENTED_EDGE('',*,*,#2220,.T.);
#2240=EDGE_LOOP('',(#2230,#2210));
#2250=FACE_OUTER_BOUND('',#2240,.T.);
#2260=EDGE_CURVE('',#1930,#1840,#2000,.T.);
#2270=ORIENTED_EDGE('',*,*,#2260,.F.);
#2280=ORIENTED_EDGE('',*,*,#2010,.F.);
#2290=EDGE_LOOP('',(#2280,#2270));
#2300=FACE_BOUND('',#2290,.T.);
#2310=ADVANCED_FACE('',(#2250,#2300),#2100,.F.);
#2320=CARTESIAN_POINT('',(0.,10.25,0.));
#2330=DIRECTION('',(-0.,-1.,-0.));
#2340=DIRECTION('',(-1.,0.,0.));
#2350=AXIS2_PLACEMENT_3D('',#2320,#2330,#2340);
#2360=CYLINDRICAL_SURFACE('',#2350,9.);
#2370=CARTESIAN_POINT('',(9.,10.25,-1.10218211923262E-15));
#2380=DIRECTION('',(-0.,-1.,-0.));
#2390=VECTOR('',#2380,1.);
#2400=LINE('',#2370,#2390);
#2410=CARTESIAN_POINT('',(9.,9.,-1.10218211923262E-15));
#2420=VERTEX_POINT('',#2410);
#2430=EDGE_CURVE('',#2190,#2420,#2400,.T.);
#2440=ORIENTED_EDGE('',*,*,#2430,.T.);
#2450=ORIENTED_EDGE('',*,*,#2220,.F.);
#2460=CARTESIAN_POINT('',(-9.,10.25,0.));
#2470=DIRECTION('',(-0.,-1.,-0.));
#2480=VECTOR('',#2470,1.);
#2490=LINE('',#2460,#2480);
#2500=CARTESIAN_POINT('',(-9.,9.,0.));
#2510=VERTEX_POINT('',#2500);
#2520=EDGE_CURVE('',#2170,#2510,#2490,.T.);
#2530=ORIENTED_EDGE('',*,*,#2520,.F.);
#2540=CARTESIAN_POINT('',(0.,9.,0.));
#2550=DIRECTION('',(0.,1.,0.));
#2560=DIRECTION('',(-1.,0.,0.));
#2570=AXIS2_PLACEMENT_3D('',#2540,#2550,#2560);
#2580=CIRCLE('',#2570,9.);
#2590=EDGE_CURVE('',#2420,#2510,#2580,.T.);
#2600=ORIENTED_EDGE('',*,*,#2590,.T.);
#2610=EDGE_LOOP('',(#2600,#2530,#2450,#2440));
#2620=FACE_OUTER_BOUND('',#2610,.T.);
#2630=ADVANCED_FACE('',(#2620),#2360,.T.);
#2640=CARTESIAN_POINT('',(-8.5,9.,0.));
#2650=DIRECTION('',(0.,1.,0.));
#2660=DIRECTION('',(1.,-0.,0.));
#2670=AXIS2_PLACEMENT_3D('',#2640,#2650,#2660);
#2680=PLANE('',#2670);
#2690=CARTESIAN_POINT('',(0.,9.,0.));
#2700=DIRECTION('',(0.,1.,0.));
#2710=DIRECTION('',(-1.,0.,0.));
#2720=AXIS2_PLACEMENT_3D('',#2690,#2700,#2710);
#2730=CIRCLE('',#2720,8.);
#2740=CARTESIAN_POINT('',(-8.,9.,0.));
#2750=VERTEX_POINT('',#2740);
#2760=CARTESIAN_POINT('',(8.,9.,-9.79717439317882E-16));
#2770=VERTEX_POINT('',#2760);
#2780=EDGE_CURVE('',#2750,#2770,#2730,.T.);
#2790=ORIENTED_EDGE('',*,*,#2780,.T.);
#2800=EDGE_CURVE('',#2770,#2750,#2730,.T.);
#2810=ORIENTED_EDGE('',*,*,#2800,.T.);
#2820=EDGE_LOOP('',(#2810,#2790));
#2830=FACE_BOUND('',#2820,.T.);
#2840=EDGE_CURVE('',#2510,#2420,#2580,.T.);
#2850=ORIENTED_EDGE('',*,*,#2840,.F.);
#2860=ORIENTED_EDGE('',*,*,#2590,.F.);
#2870=EDGE_LOOP('',(#2860,#2850));
#2880=FACE_OUTER_BOUND('',#2870,.T.);
#2890=ADVANCED_FACE('',(#2830,#2880),#2680,.F.);
#2900=CARTESIAN_POINT('',(0.,8.5,0.));
#2910=DIRECTION('',(-0.,-1.,-0.));
#2920=DIRECTION('',(-1.,0.,0.));
#2930=AXIS2_PLACEMENT_3D('',#2900,#2910,#2920);
#2940=CYLINDRICAL_SURFACE('',#2930,8.);
#2950=CARTESIAN_POINT('',(8.,8.5,-9.79717439317882E-16));
#2960=DIRECTION('',(-0.,-1.,-0.));
#2970=VECTOR('',#2960,1.);
#2980=LINE('',#2950,#2970);
#2990=EDGE_CURVE('',#2770,#1080,#2980,.T.);
#3000=ORIENTED_EDGE('',*,*,#2990,.T.);
#3010=ORIENTED_EDGE('',*,*,#2800,.F.);
#3020=CARTESIAN_POINT('',(-8.,8.5,0.));
#3030=DIRECTION('',(-0.,-1.,-0.));
#3040=VECTOR('',#3030,1.);
#3050=LINE('',#3020,#3040);
#3060=EDGE_CURVE('',#2750,#1060,#3050,.T.);
#3070=ORIENTED_EDGE('',*,*,#3060,.F.);
#3080=ORIENTED_EDGE('',*,*,#1110,.T.);
#3090=EDGE_LOOP('',(#3080,#3070,#3010,#3000));
#3100=FACE_OUTER_BOUND('',#3090,.T.);
#3110=ADVANCED_FACE('',(#3100),#2940,.T.);
#3120=CARTESIAN_POINT('',(0.,3.5,0.));
#3130=DIRECTION('',(0.,-1.,0.));
#3140=DIRECTION('',(1.,0.,0.));
#3150=AXIS2_PLACEMENT_3D('',#3120,#3130,#3140);
#3160=CYLINDRICAL_SURFACE('',#3150,1.65);
#3170=CARTESIAN_POINT('',(-1.65,3.5,2.02066721859313E-16));
#3180=DIRECTION('',(0.,-1.,0.));
#3190=VECTOR('',#3180,1.);
#3200=LINE('',#3170,#3190);
#3210=CARTESIAN_POINT('',(-1.65,7.,2.02066721859313E-16));
#3220=VERTEX_POINT('',#3210);
#3230=EDGE_CURVE('',#3220,#610,#3200,.T.);
#3240=ORIENTED_EDGE('',*,*,#3230,.T.);
#3250=CARTESIAN_POINT('',(0.,7.,0.));
#3260=DIRECTION('',(0.,1.,0.));
#3270=DIRECTION('',(1.,0.,0.));
#3280=AXIS2_PLACEMENT_3D('',#3250,#3260,#3270);
#3290=CIRCLE('',#3280,1.65);
#3300=CARTESIAN_POINT('',(1.65,7.,0.));
#3310=VERTEX_POINT('',#3300);
#3320=EDGE_CURVE('',#3310,#3220,#3290,.T.);
#3330=ORIENTED_EDGE('',*,*,#3320,.T.);
#3340=CARTESIAN_POINT('',(1.65,3.5,0.));
#3350=DIRECTION('',(0.,-1.,0.));
#3360=VECTOR('',#3350,1.);
#3370=LINE('',#3340,#3360);
#3380=EDGE_CURVE('',#3310,#590,#3370,.T.);
#3390=ORIENTED_EDGE('',*,*,#3380,.F.);
#3400=ORIENTED_EDGE('',*,*,#640,.T.);
#3410=EDGE_LOOP('',(#3400,#3390,#3330,#3240));
#3420=FACE_OUTER_BOUND('',#3410,.T.);
#3430=ADVANCED_FACE('M4_459698',(#3420),#3160,.F.);
#3440=COLOUR_RGB('',1.,0.,0.);
#3450=FILL_AREA_STYLE_COLOUR('',#3440);
#3460=FILL_AREA_STYLE('',(#3450));
#3470=SURFACE_STYLE_FILL_AREA(#3460);
#3480=SURFACE_SIDE_STYLE('',(#3470));
#3490=SURFACE_STYLE_USAGE(.BOTH.,#3480);
#3500=PRESENTATION_STYLE_ASSIGNMENT((#3490));
#3510=CARTESIAN_POINT('',(1.6425,7.,0.));
#3520=DIRECTION('',(0.,-1.,0.));
#3530=DIRECTION('',(1.,0.,0.));
#3540=AXIS2_PLACEMENT_3D('',#3510,#3520,#3530);
#3550=PLANE('',#3540);
#3560=ORIENTED_EDGE('',*,*,#3320,.F.);
#3570=EDGE_CURVE('',#3220,#3310,#3290,.T.);
#3580=ORIENTED_EDGE('',*,*,#3570,.F.);
#3590=EDGE_LOOP('',(#3580,#3560));
#3600=FACE_OUTER_BOUND('',#3590,.T.);
#3610=CARTESIAN_POINT('',(0.,7.,0.));
#3620=DIRECTION('',(0.,1.,0.));
#3630=DIRECTION('',(1.,0.,0.));
#3640=AXIS2_PLACEMENT_3D('',#3610,#3620,#3630);
#3650=CIRCLE('',#3640,1.635);
#3660=CARTESIAN_POINT('',(1.635,7.,0.));
#3670=VERTEX_POINT('',#3660);
#3680=CARTESIAN_POINT('',(-1.635,7.,2.00229751660592E-16));
#3690=VERTEX_POINT('',#3680);
#3700=EDGE_CURVE('',#3670,#3690,#3650,.T.);
#3710=ORIENTED_EDGE('',*,*,#3700,.T.);
#3720=EDGE_CURVE('',#3690,#3670,#3650,.T.);
#3730=ORIENTED_EDGE('',*,*,#3720,.T.);
#3740=EDGE_LOOP('',(#3730,#3710));
#3750=FACE_BOUND('',#3740,.T.);
#3760=ADVANCED_FACE('',(#3600,#3750),#3550,.T.);
#3770=CARTESIAN_POINT('',(0.,8.5,0.));
#3780=DIRECTION('',(0.,-1.,0.));
#3790=DIRECTION('',(1.,0.,0.));
#3800=AXIS2_PLACEMENT_3D('',#3770,#3780,#3790);
#3810=CYLINDRICAL_SURFACE('',#3800,1.635);
#3820=CARTESIAN_POINT('',(1.635,8.5,0.));
#3830=DIRECTION('',(0.,-1.,0.));
#3840=VECTOR('',#3830,1.);
#3850=LINE('',#3820,#3840);
#3860=CARTESIAN_POINT('',(1.635,10.,0.));
#3870=VERTEX_POINT('',#3860);
#3880=EDGE_CURVE('',#3870,#3670,#3850,.T.);
#3890=ORIENTED_EDGE('',*,*,#3880,.T.);
#3900=CARTESIAN_POINT('',(0.,10.,0.));
#3910=DIRECTION('',(0.,1.,0.));
#3920=DIRECTION('',(1.,0.,0.));
#3930=AXIS2_PLACEMENT_3D('',#3900,#3910,#3920);
#3940=CIRCLE('',#3930,1.635);
#3950=CARTESIAN_POINT('',(-1.635,10.,2.00229751660592E-16));
#3960=VERTEX_POINT('',#3950);
#3970=EDGE_CURVE('',#3960,#3870,#3940,.T.);
#3980=ORIENTED_EDGE('',*,*,#3970,.T.);
#3990=CARTESIAN_POINT('',(-1.635,8.5,2.00229751660592E-16));
#4000=DIRECTION('',(0.,-1.,0.));
#4010=VECTOR('',#4000,1.);
#4020=LINE('',#3990,#4010);
#4030=EDGE_CURVE('',#3960,#3690,#4020,.T.);
#4040=ORIENTED_EDGE('',*,*,#4030,.F.);
#4050=ORIENTED_EDGE('',*,*,#3720,.F.);
#4060=EDGE_LOOP('',(#4050,#4040,#3980,#3890));
#4070=FACE_OUTER_BOUND('',#4060,.T.);
#4080=ADVANCED_FACE('',(#4070),#3810,.F.);
#4090=CARTESIAN_POINT('',(0.,10.,0.));
#4100=DIRECTION('',(0.,-1.,0.));
#4110=DIRECTION('',(1.,0.,0.));
#4120=AXIS2_PLACEMENT_3D('',#4090,#4100,#4110);
#4130=CONICAL_SURFACE('',#4120,1.635,1.02974425867666);
#4140=CARTESIAN_POINT('',(1.635,10.,0.));
#4150=DIRECTION('',(0.857167300702113,-0.515038074910054,0.));
#4160=VECTOR('',#4150,1.90744560444706);
#4170=LINE('',#4140,#4160);
#4180=CARTESIAN_POINT('',(-2.22044604925031E-16,10.9824071121101,
2.46519032881566E-32));
#4190=VERTEX_POINT('',#4180);
#4200=EDGE_CURVE('',#4190,#3870,#4170,.T.);
#4210=ORIENTED_EDGE('',*,*,#4200,.T.);
#4220=CARTESIAN_POINT('',(-1.635,10.,2.00229751660592E-16));
#4230=DIRECTION('',(-0.857167300702113,-0.515038074910054,
1.04972719113862E-16));
#4240=VECTOR('',#4230,1.90744560444706);
#4250=LINE('',#4220,#4240);
#4260=EDGE_CURVE('',#4190,#3960,#4250,.T.);
#4270=ORIENTED_EDGE('',*,*,#4260,.F.);
#4280=ORIENTED_EDGE('',*,*,#3970,.F.);
#4290=EDGE_LOOP('',(#4280,#4270,#4210));
#4300=FACE_OUTER_BOUND('',#4290,.T.);
#4310=ADVANCED_FACE('',(#4300),#4130,.F.);
#4320=CARTESIAN_POINT('',(0.,4.,0.));
#4330=DIRECTION('',(-0.,-1.,-0.));
#4340=DIRECTION('',(-1.,0.,0.));
#4350=AXIS2_PLACEMENT_3D('',#4320,#4330,#4340);
#4360=CYLINDRICAL_SURFACE('',#4350,9.);
#4370=ORIENTED_EDGE('',*,*,#950,.F.);
#4380=ORIENTED_EDGE('',*,*,#140,.F.);
#4390=ORIENTED_EDGE('',*,*,#480,.T.);
#4400=ORIENTED_EDGE('',*,*,#310,.T.);
#4410=EDGE_LOOP('',(#4400,#4390,#4380,#4370));
#4420=FACE_OUTER_BOUND('',#4410,.T.);
#4430=ADVANCED_FACE('',(#4420),#4360,.T.);
#4440=CARTESIAN_POINT('',(0.,8.5,0.));
#4450=DIRECTION('',(0.,-1.,0.));
#4460=DIRECTION('',(1.,0.,0.));
#4470=AXIS2_PLACEMENT_3D('',#4440,#4450,#4460);
#4480=CYLINDRICAL_SURFACE('',#4470,1.635);
#4490=ORIENTED_EDGE('',*,*,#3700,.F.);
#4500=ORIENTED_EDGE('',*,*,#4030,.T.);
#4510=EDGE_CURVE('',#3870,#3960,#3940,.T.);
#4520=ORIENTED_EDGE('',*,*,#4510,.T.);
#4530=ORIENTED_EDGE('',*,*,#3880,.F.);
#4540=EDGE_LOOP('',(#4530,#4520,#4500,#4490));
#4550=FACE_OUTER_BOUND('',#4540,.T.);
#4560=ADVANCED_FACE('',(#4550),#4480,.F.);
#4570=CARTESIAN_POINT('',(0.,10.25,0.));
#4580=DIRECTION('',(-0.,-1.,-0.));
#4590=DIRECTION('',(-1.,0.,0.));
#4600=AXIS2_PLACEMENT_3D('',#4570,#4580,#4590);
#4610=CYLINDRICAL_SURFACE('',#4600,9.);
#4620=ORIENTED_EDGE('',*,*,#2200,.F.);
#4630=ORIENTED_EDGE('',*,*,#2430,.F.);
#4640=ORIENTED_EDGE('',*,*,#2840,.T.);
#4650=ORIENTED_EDGE('',*,*,#2520,.T.);
#4660=EDGE_LOOP('',(#4650,#4640,#4630,#4620));
#4670=FACE_OUTER_BOUND('',#4660,.T.);
#4680=ADVANCED_FACE('',(#4670),#4610,.T.);
#4690=CARTESIAN_POINT('',(0.,10.,0.));
#4700=DIRECTION('',(0.,-1.,0.));
#4710=DIRECTION('',(1.,0.,0.));
#4720=AXIS2_PLACEMENT_3D('',#4690,#4700,#4710);
#4730=CONICAL_SURFACE('',#4720,1.635,1.02974425867666);
#4740=ORIENTED_EDGE('',*,*,#4200,.F.);
#4750=ORIENTED_EDGE('',*,*,#4510,.F.);
#4760=ORIENTED_EDGE('',*,*,#4260,.T.);
#4770=EDGE_LOOP('',(#4760,#4750,#4740));
#4780=FACE_OUTER_BOUND('',#4770,.T.);
#4790=ADVANCED_FACE('',(#4780),#4730,.F.);
#4800=CARTESIAN_POINT('',(0.,12.,0.));
#4810=DIRECTION('',(-0.,-1.,-0.));
#4820=DIRECTION('',(-1.,0.,0.));
#4830=AXIS2_PLACEMENT_3D('',#4800,#4810,#4820);
#4840=CYLINDRICAL_SURFACE('',#4830,8.);
#4850=ORIENTED_EDGE('',*,*,#1620,.F.);
#4860=ORIENTED_EDGE('',*,*,#1850,.F.);
#4870=ORIENTED_EDGE('',*,*,#2260,.T.);
#4880=ORIENTED_EDGE('',*,*,#1940,.T.);
#4890=EDGE_LOOP('',(#4880,#4870,#4860,#4850));
#4900=FACE_OUTER_BOUND('',#4890,.T.);
#4910=ADVANCED_FACE('',(#4900),#4840,.T.);
#4920=CARTESIAN_POINT('',(0.,19.25,0.));
#4930=DIRECTION('',(-0.,-1.,-0.));
#4940=DIRECTION('',(-1.,0.,0.));
#4950=AXIS2_PLACEMENT_3D('',#4920,#4930,#4940);
#4960=CYLINDRICAL_SURFACE('',#4950,9.);
#4970=ORIENTED_EDGE('',*,*,#1270,.T.);
#4980=ORIENTED_EDGE('',*,*,#830,.T.);
#4990=ORIENTED_EDGE('',*,*,#1420,.F.);
#5000=ORIENTED_EDGE('',*,*,#1690,.T.);
#5010=EDGE_LOOP('',(#5000,#4990,#4980,#4970));
#5020=FACE_OUTER_BOUND('',#5010,.T.);
#5030=ADVANCED_FACE('',(#5020),#4960,.T.);
#5040=CARTESIAN_POINT('',(0.,8.5,0.));
#5050=DIRECTION('',(-0.,-1.,-0.));
#5060=DIRECTION('',(-1.,0.,0.));
#5070=AXIS2_PLACEMENT_3D('',#5040,#5050,#5060);
#5080=CYLINDRICAL_SURFACE('',#5070,8.);
#5090=ORIENTED_EDGE('',*,*,#2780,.F.);
#5100=ORIENTED_EDGE('',*,*,#2990,.F.);
#5110=ORIENTED_EDGE('',*,*,#1090,.T.);
#5120=ORIENTED_EDGE('',*,*,#3060,.T.);
#5130=EDGE_LOOP('',(#5120,#5110,#5100,#5090));
#5140=FACE_OUTER_BOUND('',#5130,.T.);
#5150=ADVANCED_FACE('',(#5140),#5080,.T.);
#5160=CARTESIAN_POINT('',(0.,3.5,0.));
#5170=DIRECTION('',(0.,-1.,0.));
#5180=DIRECTION('',(1.,0.,0.));
#5190=AXIS2_PLACEMENT_3D('',#5160,#5170,#5180);
#5200=CYLINDRICAL_SURFACE('',#5190,1.65);
#5210=ORIENTED_EDGE('',*,*,#3230,.F.);
#5220=ORIENTED_EDGE('',*,*,#620,.T.);
#5230=ORIENTED_EDGE('',*,*,#3380,.T.);
#5240=ORIENTED_EDGE('',*,*,#3570,.T.);
#5250=EDGE_LOOP('',(#5240,#5230,#5220,#5210));
#5260=FACE_OUTER_BOUND('',#5250,.T.);
#5270=ADVANCED_FACE('',(#5260),#5200,.F.);
#5280=COLOUR_RGB('',1.,0.,0.);
#5290=FILL_AREA_STYLE_COLOUR('',#5280);
#5300=FILL_AREA_STYLE('',(#5290));
#5310=SURFACE_STYLE_FILL_AREA(#5300);
#5320=SURFACE_SIDE_STYLE('',(#5310));
#5330=SURFACE_STYLE_USAGE(.BOTH.,#5320);
#5340=PRESENTATION_STYLE_ASSIGNMENT((#5330));
#5350=CLOSED_SHELL('',(#420,#680,#890,#1150,#1470,#1730,#2050,#2310,
#2630,#2890,#3110,#3430,#3760,#4080,#4310,#4430,#4560,#4680,#4790,#4910,
#5030,#5150,#5270));
#5360=MANIFOLD_SOLID_BREP('',#5350);
#5370=CARTESIAN_POINT('',(0.,0.,0.));
#5380=DIRECTION('',(0.,0.,1.));
#5390=DIRECTION('',(1.,0.,0.));
#5400=AXIS2_PLACEMENT_3D('',#5370,#5380,#5390);
#5410=APPLICATION_CONTEXT(' ');
#5420=APPLICATION_PROTOCOL_DEFINITION(' ','automotive_design',1998,#5410
);
#5430=PRODUCT_CONTEXT('',#5410,'mechanical');
#5440=PRODUCT_DEFINITION_CONTEXT('part definition',#5410,'design');
#5450=PRODUCT('1659-18','1659-18','',(#5430));
#5460=PRODUCT_RELATED_PRODUCT_CATEGORY('part',' ',(#5450));
#5470=PRODUCT_DEFINITION_FORMATION_WITH_SPECIFIED_SOURCE('','',#5450,
.BOUGHT.);
#5480=PRODUCT_DEFINITION('',' ',#5470,#5440);
#5490=PRODUCT_DEFINITION_SHAPE('','',#5480);
#5500=DIMENSIONAL_EXPONENTS(1.,0.,0.,0.,0.,0.,0.);
#5510=DIMENSIONAL_EXPONENTS(0.,0.,0.,0.,0.,0.,0.);
#5520=DIMENSIONAL_EXPONENTS(0.,0.,0.,0.,0.,0.,0.);
#5530=(LENGTH_UNIT() NAMED_UNIT(*) SI_UNIT(.MILLI.,.METRE.));
#5540=(NAMED_UNIT(*) PLANE_ANGLE_UNIT() SI_UNIT($,.RADIAN.));
#5550=(NAMED_UNIT(*) SI_UNIT($,.STERADIAN.) SOLID_ANGLE_UNIT());
#5560=(GEOMETRIC_REPRESENTATION_CONTEXT(3) 
GLOBAL_UNCERTAINTY_ASSIGNED_CONTEXT((#5570)) 
GLOBAL_UNIT_ASSIGNED_CONTEXT((#5530,#5540,#5550)) REPRESENTATION_CONTEXT
('',''));
#5570=UNCERTAINTY_MEASURE_WITH_UNIT(LENGTH_MEASURE(1.E-6),#5530,
'distance_accuracy_value','maximum gap value');
#5580=ADVANCED_BREP_SHAPE_REPRESENTATION('',(#5400,#5360),#5560);
#5590=SHAPE_DEFINITION_REPRESENTATION(#5490,#5580);
#5600=COLOUR_RGB('',0.600000023841858,0.600000023841858,
0.600000023841858);
#5610=FILL_AREA_STYLE_COLOUR('',#5600);
#5620=FILL_AREA_STYLE('',(#5610));
#5630=SURFACE_STYLE_FILL_AREA(#5620);
#5640=SURFACE_SIDE_STYLE('',(#5630));
#5650=SURFACE_STYLE_USAGE(.BOTH.,#5640);
#5660=PRESENTATION_STYLE_ASSIGNMENT((#5650));
#5670=STYLED_ITEM('',(#5660),#5360);
#5680=OVER_RIDING_STYLED_ITEM('',(#3500),#3430,#5670);
#5690=OVER_RIDING_STYLED_ITEM('',(#5340),#5270,#5670);
#5700=DRAUGHTING_MODEL('',(#5670,#5680,#5690),#5560);
ENDSEC;
END-ISO-10303-21;
