ISO-10303-21;
HEADER;
FILE_DESCRIPTION(('Creo Elements/Direct Modeling STEP Export'),'2;1');
FILE_NAME('1659-13.stp','2018-12-04T 9:39:48',(''),(''),
'Creo Elements/Direct Modeling STEP processor for AP214 (Solid Model)',
'Creo Elements/Direct Modeling 20.0  12-Nov-2016 (C) Parametric Technolo
gy GmbH','');
FILE_SCHEMA(('AUTOMOTIVE_DESIGN { 1 0 10303 214 1 1 1 1 }'));
ENDSEC;
DATA;
#10=CARTESIAN_POINT('',(0.,3.5,0.));
#20=DIRECTION('',(-0.,-1.,-0.));
#30=DIRECTION('',(-1.,0.,0.));
#40=AXIS2_PLACEMENT_3D('',#10,#20,#30);
#50=CYLINDRICAL_SURFACE('',#40,6.5);
#60=CARTESIAN_POINT('',(6.5,3.5,-7.9602041944578E-16));
#70=DIRECTION('',(-0.,-1.,-0.));
#80=VECTOR('',#70,1.);
#90=LINE('',#60,#80);
#100=CARTESIAN_POINT('',(6.5,7.,-7.9602041944578E-16));
#110=VERTEX_POINT('',#100);
#120=CARTESIAN_POINT('',(6.5,0.,-7.9602041944578E-16));
#130=VERTEX_POINT('',#120);
#140=EDGE_CURVE('',#110,#130,#90,.T.);
#150=ORIENTED_EDGE('',*,*,#140,.T.);
#160=CARTESIAN_POINT('',(0.,7.,0.));
#170=DIRECTION('',(0.,1.,0.));
#180=DIRECTION('',(-1.,0.,0.));
#190=AXIS2_PLACEMENT_3D('',#160,#170,#180);
#200=CIRCLE('',#190,6.5);
#210=CARTESIAN_POINT('',(-6.5,7.,0.));
#220=VERTEX_POINT('',#210);
#230=EDGE_CURVE('',#110,#220,#200,.T.);
#240=ORIENTED_EDGE('',*,*,#230,.F.);
#250=CARTESIAN_POINT('',(-6.5,3.5,0.));
#260=DIRECTION('',(-0.,-1.,-0.));
#270=VECTOR('',#260,1.);
#280=LINE('',#250,#270);
#290=CARTESIAN_POINT('',(-6.5,0.,0.));
#300=VERTEX_POINT('',#290);
#310=EDGE_CURVE('',#220,#300,#280,.T.);
#320=ORIENTED_EDGE('',*,*,#310,.F.);
#330=CARTESIAN_POINT('',(0.,0.,0.));
#340=DIRECTION('',(0.,1.,0.));
#350=DIRECTION('',(-1.,0.,0.));
#360=AXIS2_PLACEMENT_3D('',#330,#340,#350);
#370=CIRCLE('',#360,6.5);
#380=EDGE_CURVE('',#130,#300,#370,.T.);
#390=ORIENTED_EDGE('',*,*,#380,.T.);
#400=EDGE_LOOP('',(#390,#320,#240,#150));
#410=FACE_OUTER_BOUND('',#400,.T.);
#420=ADVANCED_FACE('',(#410),#50,.T.);
#430=CARTESIAN_POINT('',(-4.075,0.,0.));
#440=DIRECTION('',(0.,1.,0.));
#450=DIRECTION('',(1.,-0.,0.));
#460=AXIS2_PLACEMENT_3D('',#430,#440,#450);
#470=PLANE('',#460);
#480=EDGE_CURVE('',#300,#130,#370,.T.);
#490=ORIENTED_EDGE('',*,*,#480,.F.);
#500=ORIENTED_EDGE('',*,*,#380,.F.);
#510=EDGE_LOOP('',(#500,#490));
#520=FACE_OUTER_BOUND('',#510,.T.);
#530=CARTESIAN_POINT('',(0.,0.,0.));
#540=DIRECTION('',(0.,-1.,0.));
#550=DIRECTION('',(1.,0.,0.));
#560=AXIS2_PLACEMENT_3D('',#530,#540,#550);
#570=CIRCLE('',#560,1.65);
#580=CARTESIAN_POINT('',(1.65,0.,0.));
#590=VERTEX_POINT('',#580);
#600=CARTESIAN_POINT('',(-1.65,0.,2.02066721859313E-16));
#610=VERTEX_POINT('',#600);
#620=EDGE_CURVE('',#590,#610,#570,.T.);
#630=ORIENTED_EDGE('',*,*,#620,.F.);
#640=EDGE_CURVE('',#610,#590,#570,.T.);
#650=ORIENTED_EDGE('',*,*,#640,.F.);
#660=EDGE_LOOP('',(#650,#630));
#670=FACE_BOUND('',#660,.T.);
#680=ADVANCED_FACE('',(#520,#670),#470,.F.);
#690=CARTESIAN_POINT('',(-6.,7.,0.));
#700=DIRECTION('',(-0.,-1.,-0.));
#710=DIRECTION('',(-1.,0.,0.));
#720=AXIS2_PLACEMENT_3D('',#690,#700,#710);
#730=PLANE('',#720);
#740=EDGE_CURVE('',#220,#110,#200,.T.);
#750=ORIENTED_EDGE('',*,*,#740,.T.);
#760=ORIENTED_EDGE('',*,*,#230,.T.);
#770=EDGE_LOOP('',(#760,#750));
#780=FACE_OUTER_BOUND('',#770,.T.);
#790=CARTESIAN_POINT('',(0.,7.,0.));
#800=DIRECTION('',(0.,1.,0.));
#810=DIRECTION('',(-1.,0.,0.));
#820=AXIS2_PLACEMENT_3D('',#790,#800,#810);
#830=CIRCLE('',#820,5.5);
#840=CARTESIAN_POINT('',(-5.5,7.,0.));
#850=VERTEX_POINT('',#840);
#860=CARTESIAN_POINT('',(5.5,7.,-6.73555739531044E-16));
#870=VERTEX_POINT('',#860);
#880=EDGE_CURVE('',#850,#870,#830,.T.);
#890=ORIENTED_EDGE('',*,*,#880,.F.);
#900=EDGE_CURVE('',#870,#850,#830,.T.);
#910=ORIENTED_EDGE('',*,*,#900,.F.);
#920=EDGE_LOOP('',(#910,#890));
#930=FACE_BOUND('',#920,.T.);
#940=ADVANCED_FACE('',(#780,#930),#730,.F.);
#950=CARTESIAN_POINT('',(0.,16.35,0.));
#960=DIRECTION('',(-0.,-1.,-0.));
#970=DIRECTION('',(-1.,0.,0.));
#980=AXIS2_PLACEMENT_3D('',#950,#960,#970);
#990=CYLINDRICAL_SURFACE('',#980,6.5);
#1000=CARTESIAN_POINT('',(6.5,16.35,-7.9602041944578E-16));
#1010=DIRECTION('',(-0.,-1.,-0.));
#1020=VECTOR('',#1010,1.);
#1030=LINE('',#1000,#1020);
#1040=CARTESIAN_POINT('',(6.5,22.,-7.9602041944578E-16));
#1050=VERTEX_POINT('',#1040);
#1060=CARTESIAN_POINT('',(6.5,11.,-7.9602041944578E-16));
#1070=VERTEX_POINT('',#1060);
#1080=EDGE_CURVE('',#1050,#1070,#1030,.T.);
#1090=ORIENTED_EDGE('',*,*,#1080,.F.);
#1100=CARTESIAN_POINT('',(0.,11.,0.));
#1110=DIRECTION('',(0.,1.,0.));
#1120=DIRECTION('',(-1.,0.,0.));
#1130=AXIS2_PLACEMENT_3D('',#1100,#1110,#1120);
#1140=CIRCLE('',#1130,6.5);
#1150=CARTESIAN_POINT('',(-6.5,11.,0.));
#1160=VERTEX_POINT('',#1150);
#1170=EDGE_CURVE('',#1160,#1070,#1140,.T.);
#1180=ORIENTED_EDGE('',*,*,#1170,.T.);
#1190=CARTESIAN_POINT('',(-6.5,16.35,0.));
#1200=DIRECTION('',(-0.,-1.,-0.));
#1210=VECTOR('',#1200,1.);
#1220=LINE('',#1190,#1210);
#1230=CARTESIAN_POINT('',(-6.5,22.,0.));
#1240=VERTEX_POINT('',#1230);
#1250=EDGE_CURVE('',#1240,#1160,#1220,.T.);
#1260=ORIENTED_EDGE('',*,*,#1250,.T.);
#1270=CARTESIAN_POINT('',(0.,22.,0.));
#1280=DIRECTION('',(-0.,-1.,-0.));
#1290=DIRECTION('',(-1.,0.,0.));
#1300=AXIS2_PLACEMENT_3D('',#1270,#1280,#1290);
#1310=CIRCLE('',#1300,6.5);
#1320=EDGE_CURVE('',#1050,#1240,#1310,.T.);
#1330=ORIENTED_EDGE('',*,*,#1320,.T.);
#1340=EDGE_LOOP('',(#1330,#1260,#1180,#1090));
#1350=FACE_OUTER_BOUND('',#1340,.T.);
#1360=ADVANCED_FACE('',(#1350),#990,.T.);
#1370=CARTESIAN_POINT('',(0.,7.5,0.));
#1380=DIRECTION('',(-0.,-1.,-0.));
#1390=DIRECTION('',(-1.,0.,0.));
#1400=AXIS2_PLACEMENT_3D('',#1370,#1380,#1390);
#1410=CYLINDRICAL_SURFACE('',#1400,5.5);
#1420=CARTESIAN_POINT('',(5.5,7.5,-6.73555739531044E-16));
#1430=DIRECTION('',(-0.,-1.,-0.));
#1440=VECTOR('',#1430,1.);
#1450=LINE('',#1420,#1440);
#1460=CARTESIAN_POINT('',(5.5,8.,-6.73555739531044E-16));
#1470=VERTEX_POINT('',#1460);
#1480=EDGE_CURVE('',#1470,#870,#1450,.T.);
#1490=ORIENTED_EDGE('',*,*,#1480,.T.);
#1500=CARTESIAN_POINT('',(0.,8.,0.));
#1510=DIRECTION('',(0.,1.,0.));
#1520=DIRECTION('',(-1.,0.,0.));
#1530=AXIS2_PLACEMENT_3D('',#1500,#1510,#1520);
#1540=CIRCLE('',#1530,5.5);
#1550=CARTESIAN_POINT('',(-5.5,8.,0.));
#1560=VERTEX_POINT('',#1550);
#1570=EDGE_CURVE('',#1470,#1560,#1540,.T.);
#1580=ORIENTED_EDGE('',*,*,#1570,.F.);
#1590=CARTESIAN_POINT('',(-5.5,7.5,0.));
#1600=DIRECTION('',(-0.,-1.,-0.));
#1610=VECTOR('',#1600,1.);
#1620=LINE('',#1590,#1610);
#1630=EDGE_CURVE('',#1560,#850,#1620,.T.);
#1640=ORIENTED_EDGE('',*,*,#1630,.F.);
#1650=ORIENTED_EDGE('',*,*,#900,.T.);
#1660=EDGE_LOOP('',(#1650,#1640,#1580,#1490));
#1670=FACE_OUTER_BOUND('',#1660,.T.);
#1680=ADVANCED_FACE('',(#1670),#1410,.T.);
#1690=CARTESIAN_POINT('',(-3.1,22.,0.));
#1700=DIRECTION('',(0.,1.,0.));
#1710=DIRECTION('',(1.,-0.,0.));
#1720=AXIS2_PLACEMENT_3D('',#1690,#1700,#1710);
#1730=PLANE('',#1720);
#1740=EDGE_CURVE('',#1240,#1050,#1310,.T.);
#1750=ORIENTED_EDGE('',*,*,#1740,.F.);
#1760=ORIENTED_EDGE('',*,*,#1320,.F.);
#1770=EDGE_LOOP('',(#1760,#1750));
#1780=FACE_OUTER_BOUND('',#1770,.T.);
#1790=ADVANCED_FACE('',(#1780),#1730,.T.);
#1800=CARTESIAN_POINT('',(-6.,11.,0.));
#1810=DIRECTION('',(0.,1.,0.));
#1820=DIRECTION('',(1.,-0.,0.));
#1830=AXIS2_PLACEMENT_3D('',#1800,#1810,#1820);
#1840=PLANE('',#1830);
#1850=CARTESIAN_POINT('',(0.,11.,0.));
#1860=DIRECTION('',(0.,1.,0.));
#1870=DIRECTION('',(-1.,0.,0.));
#1880=AXIS2_PLACEMENT_3D('',#1850,#1860,#1870);
#1890=CIRCLE('',#1880,5.5);
#1900=CARTESIAN_POINT('',(-5.5,11.,0.));
#1910=VERTEX_POINT('',#1900);
#1920=CARTESIAN_POINT('',(5.5,11.,-6.73555739531044E-16));
#1930=VERTEX_POINT('',#1920);
#1940=EDGE_CURVE('',#1910,#1930,#1890,.T.);
#1950=ORIENTED_EDGE('',*,*,#1940,.T.);
#1960=EDGE_CURVE('',#1930,#1910,#1890,.T.);
#1970=ORIENTED_EDGE('',*,*,#1960,.T.);
#1980=EDGE_LOOP('',(#1970,#1950));
#1990=FACE_BOUND('',#1980,.T.);
#2000=ORIENTED_EDGE('',*,*,#1170,.F.);
#2010=EDGE_CURVE('',#1070,#1160,#1140,.T.);
#2020=ORIENTED_EDGE('',*,*,#2010,.F.);
#2030=EDGE_LOOP('',(#2020,#2000));
#2040=FACE_OUTER_BOUND('',#2030,.T.);
#2050=ADVANCED_FACE('',(#1990,#2040),#1840,.F.);
#2060=CARTESIAN_POINT('',(0.,10.5,0.));
#2070=DIRECTION('',(-0.,-1.,-0.));
#2080=DIRECTION('',(-1.,0.,0.));
#2090=AXIS2_PLACEMENT_3D('',#2060,#2070,#2080);
#2100=CYLINDRICAL_SURFACE('',#2090,5.5);
#2110=CARTESIAN_POINT('',(5.5,10.5,-6.73555739531044E-16));
#2120=DIRECTION('',(-0.,-1.,-0.));
#2130=VECTOR('',#2120,1.);
#2140=LINE('',#2110,#2130);
#2150=CARTESIAN_POINT('',(5.5,10.,-6.73555739531044E-16));
#2160=VERTEX_POINT('',#2150);
#2170=EDGE_CURVE('',#1930,#2160,#2140,.T.);
#2180=ORIENTED_EDGE('',*,*,#2170,.T.);
#2190=ORIENTED_EDGE('',*,*,#1960,.F.);
#2200=CARTESIAN_POINT('',(-5.5,10.5,0.));
#2210=DIRECTION('',(-0.,-1.,-0.));
#2220=VECTOR('',#2210,1.);
#2230=LINE('',#2200,#2220);
#2240=CARTESIAN_POINT('',(-5.5,10.,0.));
#2250=VERTEX_POINT('',#2240);
#2260=EDGE_CURVE('',#1910,#2250,#2230,.T.);
#2270=ORIENTED_EDGE('',*,*,#2260,.F.);
#2280=CARTESIAN_POINT('',(0.,10.,0.));
#2290=DIRECTION('',(0.,1.,0.));
#2300=DIRECTION('',(-1.,0.,0.));
#2310=AXIS2_PLACEMENT_3D('',#2280,#2290,#2300);
#2320=CIRCLE('',#2310,5.5);
#2330=EDGE_CURVE('',#2160,#2250,#2320,.T.);
#2340=ORIENTED_EDGE('',*,*,#2330,.T.);
#2350=EDGE_LOOP('',(#2340,#2270,#2190,#2180));
#2360=FACE_OUTER_BOUND('',#2350,.T.);
#2370=ADVANCED_FACE('',(#2360),#2100,.T.);
#2380=CARTESIAN_POINT('',(-6.,10.,0.));
#2390=DIRECTION('',(-0.,-1.,-0.));
#2400=DIRECTION('',(-1.,0.,0.));
#2410=AXIS2_PLACEMENT_3D('',#2380,#2390,#2400);
#2420=PLANE('',#2410);
#2430=CARTESIAN_POINT('',(0.,10.,0.));
#2440=DIRECTION('',(0.,1.,0.));
#2450=DIRECTION('',(-1.,0.,0.));
#2460=AXIS2_PLACEMENT_3D('',#2430,#2440,#2450);
#2470=CIRCLE('',#2460,6.5);
#2480=CARTESIAN_POINT('',(-6.5,10.,0.));
#2490=VERTEX_POINT('',#2480);
#2500=CARTESIAN_POINT('',(6.5,10.,-7.9602041944578E-16));
#2510=VERTEX_POINT('',#2500);
#2520=EDGE_CURVE('',#2490,#2510,#2470,.T.);
#2530=ORIENTED_EDGE('',*,*,#2520,.T.);
#2540=EDGE_CURVE('',#2510,#2490,#2470,.T.);
#2550=ORIENTED_EDGE('',*,*,#2540,.T.);
#2560=EDGE_LOOP('',(#2550,#2530));
#2570=FACE_OUTER_BOUND('',#2560,.T.);
#2580=EDGE_CURVE('',#2250,#2160,#2320,.T.);
#2590=ORIENTED_EDGE('',*,*,#2580,.F.);
#2600=ORIENTED_EDGE('',*,*,#2330,.F.);
#2610=EDGE_LOOP('',(#2600,#2590));
#2620=FACE_BOUND('',#2610,.T.);
#2630=ADVANCED_FACE('',(#2570,#2620),#2420,.F.);
#2640=CARTESIAN_POINT('',(0.,9.,0.));
#2650=DIRECTION('',(-0.,-1.,-0.));
#2660=DIRECTION('',(-1.,0.,0.));
#2670=AXIS2_PLACEMENT_3D('',#2640,#2650,#2660);
#2680=CYLINDRICAL_SURFACE('',#2670,6.5);
#2690=CARTESIAN_POINT('',(6.5,9.,-7.9602041944578E-16));
#2700=DIRECTION('',(-0.,-1.,-0.));
#2710=VECTOR('',#2700,1.);
#2720=LINE('',#2690,#2710);
#2730=CARTESIAN_POINT('',(6.5,8.,-7.9602041944578E-16));
#2740=VERTEX_POINT('',#2730);
#2750=EDGE_CURVE('',#2510,#2740,#2720,.T.);
#2760=ORIENTED_EDGE('',*,*,#2750,.T.);
#2770=ORIENTED_EDGE('',*,*,#2540,.F.);
#2780=CARTESIAN_POINT('',(-6.5,9.,0.));
#2790=DIRECTION('',(-0.,-1.,-0.));
#2800=VECTOR('',#2790,1.);
#2810=LINE('',#2780,#2800);
#2820=CARTESIAN_POINT('',(-6.5,8.,0.));
#2830=VERTEX_POINT('',#2820);
#2840=EDGE_CURVE('',#2490,#2830,#2810,.T.);
#2850=ORIENTED_EDGE('',*,*,#2840,.F.);
#2860=CARTESIAN_POINT('',(0.,8.,0.));
#2870=DIRECTION('',(0.,1.,0.));
#2880=DIRECTION('',(-1.,0.,0.));
#2890=AXIS2_PLACEMENT_3D('',#2860,#2870,#2880);
#2900=CIRCLE('',#2890,6.5);
#2910=EDGE_CURVE('',#2740,#2830,#2900,.T.);
#2920=ORIENTED_EDGE('',*,*,#2910,.T.);
#2930=EDGE_LOOP('',(#2920,#2850,#2770,#2760));
#2940=FACE_OUTER_BOUND('',#2930,.T.);
#2950=ADVANCED_FACE('',(#2940),#2680,.T.);
#2960=CARTESIAN_POINT('',(-6.,8.,0.));
#2970=DIRECTION('',(0.,1.,0.));
#2980=DIRECTION('',(1.,-0.,0.));
#2990=AXIS2_PLACEMENT_3D('',#2960,#2970,#2980);
#3000=PLANE('',#2990);
#3010=EDGE_CURVE('',#1560,#1470,#1540,.T.);
#3020=ORIENTED_EDGE('',*,*,#3010,.T.);
#3030=ORIENTED_EDGE('',*,*,#1570,.T.);
#3040=EDGE_LOOP('',(#3030,#3020));
#3050=FACE_BOUND('',#3040,.T.);
#3060=EDGE_CURVE('',#2830,#2740,#2900,.T.);
#3070=ORIENTED_EDGE('',*,*,#3060,.F.);
#3080=ORIENTED_EDGE('',*,*,#2910,.F.);
#3090=EDGE_LOOP('',(#3080,#3070));
#3100=FACE_OUTER_BOUND('',#3090,.T.);
#3110=ADVANCED_FACE('',(#3050,#3100),#3000,.F.);
#3120=CARTESIAN_POINT('',(0.,3.5,0.));
#3130=DIRECTION('',(0.,-1.,0.));
#3140=DIRECTION('',(1.,0.,0.));
#3150=AXIS2_PLACEMENT_3D('',#3120,#3130,#3140);
#3160=CYLINDRICAL_SURFACE('',#3150,1.65);
#3170=CARTESIAN_POINT('',(-1.65,3.5,2.02066721859313E-16));
#3180=DIRECTION('',(0.,-1.,0.));
#3190=VECTOR('',#3180,1.);
#3200=LINE('',#3170,#3190);
#3210=CARTESIAN_POINT('',(-1.65,7.,2.02066721859313E-16));
#3220=VERTEX_POINT('',#3210);
#3230=EDGE_CURVE('',#3220,#610,#3200,.T.);
#3240=ORIENTED_EDGE('',*,*,#3230,.T.);
#3250=CARTESIAN_POINT('',(0.,7.,0.));
#3260=DIRECTION('',(0.,1.,0.));
#3270=DIRECTION('',(1.,0.,0.));
#3280=AXIS2_PLACEMENT_3D('',#3250,#3260,#3270);
#3290=CIRCLE('',#3280,1.65);
#3300=CARTESIAN_POINT('',(1.65,7.,0.));
#3310=VERTEX_POINT('',#3300);
#3320=EDGE_CURVE('',#3310,#3220,#3290,.T.);
#3330=ORIENTED_EDGE('',*,*,#3320,.T.);
#3340=CARTESIAN_POINT('',(1.65,3.5,0.));
#3350=DIRECTION('',(0.,-1.,0.));
#3360=VECTOR('',#3350,1.);
#3370=LINE('',#3340,#3360);
#3380=EDGE_CURVE('',#3310,#590,#3370,.T.);
#3390=ORIENTED_EDGE('',*,*,#3380,.F.);
#3400=ORIENTED_EDGE('',*,*,#640,.T.);
#3410=EDGE_LOOP('',(#3400,#3390,#3330,#3240));
#3420=FACE_OUTER_BOUND('',#3410,.T.);
#3430=ADVANCED_FACE('M4_439577',(#3420),#3160,.F.);
#3440=COLOUR_RGB('',1.,0.,0.);
#3450=FILL_AREA_STYLE_COLOUR('',#3440);
#3460=FILL_AREA_STYLE('',(#3450));
#3470=SURFACE_STYLE_FILL_AREA(#3460);
#3480=SURFACE_SIDE_STYLE('',(#3470));
#3490=SURFACE_STYLE_USAGE(.BOTH.,#3480);
#3500=PRESENTATION_STYLE_ASSIGNMENT((#3490));
#3510=CARTESIAN_POINT('',(1.6425,7.,0.));
#3520=DIRECTION('',(0.,-1.,0.));
#3530=DIRECTION('',(1.,0.,0.));
#3540=AXIS2_PLACEMENT_3D('',#3510,#3520,#3530);
#3550=PLANE('',#3540);
#3560=ORIENTED_EDGE('',*,*,#3320,.F.);
#3570=EDGE_CURVE('',#3220,#3310,#3290,.T.);
#3580=ORIENTED_EDGE('',*,*,#3570,.F.);
#3590=EDGE_LOOP('',(#3580,#3560));
#3600=FACE_OUTER_BOUND('',#3590,.T.);
#3610=CARTESIAN_POINT('',(0.,7.,0.));
#3620=DIRECTION('',(0.,1.,0.));
#3630=DIRECTION('',(1.,0.,0.));
#3640=AXIS2_PLACEMENT_3D('',#3610,#3620,#3630);
#3650=CIRCLE('',#3640,1.635);
#3660=CARTESIAN_POINT('',(1.635,7.,0.));
#3670=VERTEX_POINT('',#3660);
#3680=CARTESIAN_POINT('',(-1.635,7.,2.00229751660592E-16));
#3690=VERTEX_POINT('',#3680);
#3700=EDGE_CURVE('',#3670,#3690,#3650,.T.);
#3710=ORIENTED_EDGE('',*,*,#3700,.T.);
#3720=EDGE_CURVE('',#3690,#3670,#3650,.T.);
#3730=ORIENTED_EDGE('',*,*,#3720,.T.);
#3740=EDGE_LOOP('',(#3730,#3710));
#3750=FACE_BOUND('',#3740,.T.);
#3760=ADVANCED_FACE('',(#3600,#3750),#3550,.T.);
#3770=CARTESIAN_POINT('',(0.,8.5,0.));
#3780=DIRECTION('',(0.,-1.,0.));
#3790=DIRECTION('',(1.,0.,0.));
#3800=AXIS2_PLACEMENT_3D('',#3770,#3780,#3790);
#3810=CYLINDRICAL_SURFACE('',#3800,1.635);
#3820=CARTESIAN_POINT('',(1.635,8.5,0.));
#3830=DIRECTION('',(0.,-1.,0.));
#3840=VECTOR('',#3830,1.);
#3850=LINE('',#3820,#3840);
#3860=CARTESIAN_POINT('',(1.635,10.,0.));
#3870=VERTEX_POINT('',#3860);
#3880=EDGE_CURVE('',#3870,#3670,#3850,.T.);
#3890=ORIENTED_EDGE('',*,*,#3880,.T.);
#3900=CARTESIAN_POINT('',(0.,10.,0.));
#3910=DIRECTION('',(0.,1.,0.));
#3920=DIRECTION('',(1.,0.,0.));
#3930=AXIS2_PLACEMENT_3D('',#3900,#3910,#3920);
#3940=CIRCLE('',#3930,1.635);
#3950=CARTESIAN_POINT('',(-1.635,10.,2.00229751660592E-16));
#3960=VERTEX_POINT('',#3950);
#3970=EDGE_CURVE('',#3960,#3870,#3940,.T.);
#3980=ORIENTED_EDGE('',*,*,#3970,.T.);
#3990=CARTESIAN_POINT('',(-1.635,8.5,2.00229751660592E-16));
#4000=DIRECTION('',(0.,-1.,0.));
#4010=VECTOR('',#4000,1.);
#4020=LINE('',#3990,#4010);
#4030=EDGE_CURVE('',#3960,#3690,#4020,.T.);
#4040=ORIENTED_EDGE('',*,*,#4030,.F.);
#4050=ORIENTED_EDGE('',*,*,#3720,.F.);
#4060=EDGE_LOOP('',(#4050,#4040,#3980,#3890));
#4070=FACE_OUTER_BOUND('',#4060,.T.);
#4080=ADVANCED_FACE('',(#4070),#3810,.F.);
#4090=CARTESIAN_POINT('',(0.,10.,0.));
#4100=DIRECTION('',(0.,-1.,0.));
#4110=DIRECTION('',(1.,0.,0.));
#4120=AXIS2_PLACEMENT_3D('',#4090,#4100,#4110);
#4130=CONICAL_SURFACE('',#4120,1.635,1.02974425867666);
#4140=CARTESIAN_POINT('',(1.635,10.,0.));
#4150=DIRECTION('',(0.857167300702113,-0.515038074910054,0.));
#4160=VECTOR('',#4150,1.90744560444706);
#4170=LINE('',#4140,#4160);
#4180=CARTESIAN_POINT('',(-2.22044604925031E-16,10.9824071121101,
2.46519032881566E-32));
#4190=VERTEX_POINT('',#4180);
#4200=EDGE_CURVE('',#4190,#3870,#4170,.T.);
#4210=ORIENTED_EDGE('',*,*,#4200,.T.);
#4220=CARTESIAN_POINT('',(-1.635,10.,2.00229751660592E-16));
#4230=DIRECTION('',(-0.857167300702113,-0.515038074910054,
1.04972719113862E-16));
#4240=VECTOR('',#4230,1.90744560444706);
#4250=LINE('',#4220,#4240);
#4260=EDGE_CURVE('',#4190,#3960,#4250,.T.);
#4270=ORIENTED_EDGE('',*,*,#4260,.F.);
#4280=ORIENTED_EDGE('',*,*,#3970,.F.);
#4290=EDGE_LOOP('',(#4280,#4270,#4210));
#4300=FACE_OUTER_BOUND('',#4290,.T.);
#4310=ADVANCED_FACE('',(#4300),#4130,.F.);
#4320=CARTESIAN_POINT('',(0.,9.,0.));
#4330=DIRECTION('',(-0.,-1.,-0.));
#4340=DIRECTION('',(-1.,0.,0.));
#4350=AXIS2_PLACEMENT_3D('',#4320,#4330,#4340);
#4360=CYLINDRICAL_SURFACE('',#4350,6.5);
#4370=ORIENTED_EDGE('',*,*,#2520,.F.);
#4380=ORIENTED_EDGE('',*,*,#2750,.F.);
#4390=ORIENTED_EDGE('',*,*,#3060,.T.);
#4400=ORIENTED_EDGE('',*,*,#2840,.T.);
#4410=EDGE_LOOP('',(#4400,#4390,#4380,#4370));
#4420=FACE_OUTER_BOUND('',#4410,.T.);
#4430=ADVANCED_FACE('',(#4420),#4360,.T.);
#4440=CARTESIAN_POINT('',(0.,10.5,0.));
#4450=DIRECTION('',(-0.,-1.,-0.));
#4460=DIRECTION('',(-1.,0.,0.));
#4470=AXIS2_PLACEMENT_3D('',#4440,#4450,#4460);
#4480=CYLINDRICAL_SURFACE('',#4470,5.5);
#4490=ORIENTED_EDGE('',*,*,#1940,.F.);
#4500=ORIENTED_EDGE('',*,*,#2170,.F.);
#4510=ORIENTED_EDGE('',*,*,#2580,.T.);
#4520=ORIENTED_EDGE('',*,*,#2260,.T.);
#4530=EDGE_LOOP('',(#4520,#4510,#4500,#4490));
#4540=FACE_OUTER_BOUND('',#4530,.T.);
#4550=ADVANCED_FACE('',(#4540),#4480,.T.);
#4560=CARTESIAN_POINT('',(0.,3.5,0.));
#4570=DIRECTION('',(-0.,-1.,-0.));
#4580=DIRECTION('',(-1.,0.,0.));
#4590=AXIS2_PLACEMENT_3D('',#4560,#4570,#4580);
#4600=CYLINDRICAL_SURFACE('',#4590,6.5);
#4610=ORIENTED_EDGE('',*,*,#740,.F.);
#4620=ORIENTED_EDGE('',*,*,#140,.F.);
#4630=ORIENTED_EDGE('',*,*,#480,.T.);
#4640=ORIENTED_EDGE('',*,*,#310,.T.);
#4650=EDGE_LOOP('',(#4640,#4630,#4620,#4610));
#4660=FACE_OUTER_BOUND('',#4650,.T.);
#4670=ADVANCED_FACE('',(#4660),#4600,.T.);
#4680=CARTESIAN_POINT('',(0.,7.5,0.));
#4690=DIRECTION('',(-0.,-1.,-0.));
#4700=DIRECTION('',(-1.,0.,0.));
#4710=AXIS2_PLACEMENT_3D('',#4680,#4690,#4700);
#4720=CYLINDRICAL_SURFACE('',#4710,5.5);
#4730=ORIENTED_EDGE('',*,*,#880,.T.);
#4740=ORIENTED_EDGE('',*,*,#1630,.T.);
#4750=ORIENTED_EDGE('',*,*,#3010,.F.);
#4760=ORIENTED_EDGE('',*,*,#1480,.F.);
#4770=EDGE_LOOP('',(#4760,#4750,#4740,#4730));
#4780=FACE_OUTER_BOUND('',#4770,.T.);
#4790=ADVANCED_FACE('',(#4780),#4720,.T.);
#4800=CARTESIAN_POINT('',(0.,16.35,0.));
#4810=DIRECTION('',(-0.,-1.,-0.));
#4820=DIRECTION('',(-1.,0.,0.));
#4830=AXIS2_PLACEMENT_3D('',#4800,#4810,#4820);
#4840=CYLINDRICAL_SURFACE('',#4830,6.5);
#4850=ORIENTED_EDGE('',*,*,#1080,.T.);
#4860=ORIENTED_EDGE('',*,*,#1740,.T.);
#4870=ORIENTED_EDGE('',*,*,#1250,.F.);
#4880=ORIENTED_EDGE('',*,*,#2010,.T.);
#4890=EDGE_LOOP('',(#4880,#4870,#4860,#4850));
#4900=FACE_OUTER_BOUND('',#4890,.T.);
#4910=ADVANCED_FACE('',(#4900),#4840,.T.);
#4920=CARTESIAN_POINT('',(0.,3.5,0.));
#4930=DIRECTION('',(0.,-1.,0.));
#4940=DIRECTION('',(1.,0.,0.));
#4950=AXIS2_PLACEMENT_3D('',#4920,#4930,#4940);
#4960=CYLINDRICAL_SURFACE('',#4950,1.65);
#4970=ORIENTED_EDGE('',*,*,#3230,.F.);
#4980=ORIENTED_EDGE('',*,*,#620,.T.);
#4990=ORIENTED_EDGE('',*,*,#3380,.T.);
#5000=ORIENTED_EDGE('',*,*,#3570,.T.);
#5010=EDGE_LOOP('',(#5000,#4990,#4980,#4970));
#5020=FACE_OUTER_BOUND('',#5010,.T.);
#5030=ADVANCED_FACE('',(#5020),#4960,.F.);
#5040=COLOUR_RGB('',1.,0.,0.);
#5050=FILL_AREA_STYLE_COLOUR('',#5040);
#5060=FILL_AREA_STYLE('',(#5050));
#5070=SURFACE_STYLE_FILL_AREA(#5060);
#5080=SURFACE_SIDE_STYLE('',(#5070));
#5090=SURFACE_STYLE_USAGE(.BOTH.,#5080);
#5100=PRESENTATION_STYLE_ASSIGNMENT((#5090));
#5110=CARTESIAN_POINT('',(0.,8.5,0.));
#5120=DIRECTION('',(0.,-1.,0.));
#5130=DIRECTION('',(1.,0.,0.));
#5140=AXIS2_PLACEMENT_3D('',#5110,#5120,#5130);
#5150=CYLINDRICAL_SURFACE('',#5140,1.635);
#5160=ORIENTED_EDGE('',*,*,#3700,.F.);
#5170=ORIENTED_EDGE('',*,*,#4030,.T.);
#5180=EDGE_CURVE('',#3870,#3960,#3940,.T.);
#5190=ORIENTED_EDGE('',*,*,#5180,.T.);
#5200=ORIENTED_EDGE('',*,*,#3880,.F.);
#5210=EDGE_LOOP('',(#5200,#5190,#5170,#5160));
#5220=FACE_OUTER_BOUND('',#5210,.T.);
#5230=ADVANCED_FACE('',(#5220),#5150,.F.);
#5240=CARTESIAN_POINT('',(0.,10.,0.));
#5250=DIRECTION('',(0.,-1.,0.));
#5260=DIRECTION('',(1.,0.,0.));
#5270=AXIS2_PLACEMENT_3D('',#5240,#5250,#5260);
#5280=CONICAL_SURFACE('',#5270,1.635,1.02974425867666);
#5290=ORIENTED_EDGE('',*,*,#4200,.F.);
#5300=ORIENTED_EDGE('',*,*,#5180,.F.);
#5310=ORIENTED_EDGE('',*,*,#4260,.T.);
#5320=EDGE_LOOP('',(#5310,#5300,#5290));
#5330=FACE_OUTER_BOUND('',#5320,.T.);
#5340=ADVANCED_FACE('',(#5330),#5280,.F.);
#5350=CLOSED_SHELL('',(#420,#680,#940,#1360,#1680,#1790,#2050,#2370,
#2630,#2950,#3110,#3430,#3760,#4080,#4310,#4430,#4550,#4670,#4790,#4910,
#5030,#5230,#5340));
#5360=MANIFOLD_SOLID_BREP('',#5350);
#5370=CARTESIAN_POINT('',(0.,0.,0.));
#5380=DIRECTION('',(0.,0.,1.));
#5390=DIRECTION('',(1.,0.,0.));
#5400=AXIS2_PLACEMENT_3D('',#5370,#5380,#5390);
#5410=APPLICATION_CONTEXT(' ');
#5420=APPLICATION_PROTOCOL_DEFINITION(' ','automotive_design',1998,#5410
);
#5430=PRODUCT_CONTEXT('',#5410,'mechanical');
#5440=PRODUCT_DEFINITION_CONTEXT('part definition',#5410,'design');
#5450=PRODUCT('1659-13','1659-13','',(#5430));
#5460=PRODUCT_RELATED_PRODUCT_CATEGORY('part',' ',(#5450));
#5470=PRODUCT_DEFINITION_FORMATION_WITH_SPECIFIED_SOURCE('','',#5450,
.BOUGHT.);
#5480=PRODUCT_DEFINITION('',' ',#5470,#5440);
#5490=PRODUCT_DEFINITION_SHAPE('','',#5480);
#5500=DIMENSIONAL_EXPONENTS(1.,0.,0.,0.,0.,0.,0.);
#5510=DIMENSIONAL_EXPONENTS(0.,0.,0.,0.,0.,0.,0.);
#5520=DIMENSIONAL_EXPONENTS(0.,0.,0.,0.,0.,0.,0.);
#5530=(LENGTH_UNIT() NAMED_UNIT(*) SI_UNIT(.MILLI.,.METRE.));
#5540=(NAMED_UNIT(*) PLANE_ANGLE_UNIT() SI_UNIT($,.RADIAN.));
#5550=(NAMED_UNIT(*) SI_UNIT($,.STERADIAN.) SOLID_ANGLE_UNIT());
#5560=(GEOMETRIC_REPRESENTATION_CONTEXT(3) 
GLOBAL_UNCERTAINTY_ASSIGNED_CONTEXT((#5570)) 
GLOBAL_UNIT_ASSIGNED_CONTEXT((#5530,#5540,#5550)) REPRESENTATION_CONTEXT
('',''));
#5570=UNCERTAINTY_MEASURE_WITH_UNIT(LENGTH_MEASURE(1.E-6),#5530,
'distance_accuracy_value','maximum gap value');
#5580=ADVANCED_BREP_SHAPE_REPRESENTATION('',(#5400,#5360),#5560);
#5590=SHAPE_DEFINITION_REPRESENTATION(#5490,#5580);
#5600=COLOUR_RGB('',0.600000023841858,0.600000023841858,
0.600000023841858);
#5610=FILL_AREA_STYLE_COLOUR('',#5600);
#5620=FILL_AREA_STYLE('',(#5610));
#5630=SURFACE_STYLE_FILL_AREA(#5620);
#5640=SURFACE_SIDE_STYLE('',(#5630));
#5650=SURFACE_STYLE_USAGE(.BOTH.,#5640);
#5660=PRESENTATION_STYLE_ASSIGNMENT((#5650));
#5670=STYLED_ITEM('',(#5660),#5360);
#5680=OVER_RIDING_STYLED_ITEM('',(#3500),#3430,#5670);
#5690=OVER_RIDING_STYLED_ITEM('',(#5100),#5030,#5670);
#5700=DRAUGHTING_MODEL('',(#5670,#5680,#5690),#5560);
ENDSEC;
END-ISO-10303-21;
