ISO-10303-21;
HEADER;
FILE_DESCRIPTION(('Creo Elements/Direct Modeling STEP Export'),'2;1');
FILE_NAME('1579-37.stp','2021-03-18T15:24:00',(''),(''),
'Creo Elements/Direct Modeling STEP processor for AP214 (Solid Model)',
'Creo Elements/Direct Modeling 20.0  12-Nov-2016 (C) Parametric Technolo
gy GmbH','');
FILE_SCHEMA(('AUTOMOTIVE_DESIGN { 1 0 10303 214 1 1 1 1 }'));
ENDSEC;
DATA;
#10=CARTESIAN_POINT('',(0.,2.97735777576786,0.));
#20=DIRECTION('',(0.,1.,0.));
#30=DIRECTION('',(1.,0.,0.));
#40=AXIS2_PLACEMENT_3D('',#10,#20,#30);
#50=SPHERICAL_SURFACE('',#40,25.2226422242321);
#60=CARTESIAN_POINT('',(0.,2.97735777576786,0.));
#70=DIRECTION('',(0.,0.,-1.));
#80=DIRECTION('',(1.,-0.,0.));
#90=AXIS2_PLACEMENT_3D('',#60,#70,#80);
#100=CIRCLE('',#90,25.2226422242321);
#110=CARTESIAN_POINT('',(-4.63332420989171E-15,28.2,0.));
#120=VERTEX_POINT('',#110);
#130=CARTESIAN_POINT('',(13.5,24.2830302779823,0.));
#140=VERTEX_POINT('',#130);
#150=EDGE_CURVE('',#120,#140,#100,.T.);
#160=ORIENTED_EDGE('',*,*,#150,.T.);
#170=CARTESIAN_POINT('',(-13.5,24.2830302779823,0.));
#180=VERTEX_POINT('',#170);
#190=EDGE_CURVE('',#180,#120,#100,.T.);
#200=ORIENTED_EDGE('',*,*,#190,.T.);
#210=CARTESIAN_POINT('',(0.,24.2830302779823,0.));
#220=DIRECTION('',(0.,1.,0.));
#230=DIRECTION('',(-1.,0.,0.));
#240=AXIS2_PLACEMENT_3D('',#210,#220,#230);
#250=CIRCLE('',#240,13.5);
#260=EDGE_CURVE('',#140,#180,#250,.T.);
#270=ORIENTED_EDGE('',*,*,#260,.T.);
#280=EDGE_LOOP('',(#270,#200,#160));
#290=FACE_OUTER_BOUND('',#280,.T.);
#300=ADVANCED_FACE('',(#290),#50,.T.);
#310=CARTESIAN_POINT('',(0.,22.45,0.));
#320=DIRECTION('',(0.,1.,0.));
#330=DIRECTION('',(-1.,0.,0.));
#340=AXIS2_PLACEMENT_3D('',#310,#320,#330);
#350=TOROIDAL_SURFACE('',#340,15.55,2.75);
#360=CARTESIAN_POINT('',(15.55,22.45,0.));
#370=DIRECTION('',(0.,0.,-1.));
#380=DIRECTION('',(-1.,0.,0.));
#390=AXIS2_PLACEMENT_3D('',#360,#370,#380);
#400=CIRCLE('',#390,2.75);
#410=CARTESIAN_POINT('',(18.2998231027242,22.4811914046527,0.));
#420=VERTEX_POINT('',#410);
#430=EDGE_CURVE('',#140,#420,#400,.T.);
#440=ORIENTED_EDGE('',*,*,#430,.T.);
#450=ORIENTED_EDGE('',*,*,#260,.F.);
#460=CARTESIAN_POINT('',(-15.55,22.45,0.));
#470=DIRECTION('',(0.,0.,1.));
#480=DIRECTION('',(1.,0.,0.));
#490=AXIS2_PLACEMENT_3D('',#460,#470,#480);
#500=CIRCLE('',#490,2.75);
#510=CARTESIAN_POINT('',(-18.2998231027242,22.4811914046527,0.));
#520=VERTEX_POINT('',#510);
#530=EDGE_CURVE('',#180,#520,#500,.T.);
#540=ORIENTED_EDGE('',*,*,#530,.F.);
#550=CARTESIAN_POINT('',(0.,22.4811914046527,0.));
#560=DIRECTION('',(0.,1.,0.));
#570=DIRECTION('',(-1.,0.,0.));
#580=AXIS2_PLACEMENT_3D('',#550,#560,#570);
#590=CIRCLE('',#580,18.2998231027242);
#600=EDGE_CURVE('',#420,#520,#590,.T.);
#610=ORIENTED_EDGE('',*,*,#600,.T.);
#620=EDGE_LOOP('',(#610,#540,#450,#440));
#630=FACE_OUTER_BOUND('',#620,.T.);
#640=ADVANCED_FACE('',(#630),#350,.T.);
#650=CARTESIAN_POINT('',(0.,22.5,0.));
#660=DIRECTION('',(0.,-1.,0.));
#670=DIRECTION('',(-1.,0.,0.));
#680=AXIS2_PLACEMENT_3D('',#650,#660,#670);
#690=TOROIDAL_SURFACE('',#680,17.3,1.);
#700=CARTESIAN_POINT('',(-17.3,22.5,0.));
#710=DIRECTION('',(0.,0.,-1.));
#720=DIRECTION('',(-1.,0.,0.));
#730=AXIS2_PLACEMENT_3D('',#700,#710,#720);
#740=CIRCLE('',#730,1.);
#750=CARTESIAN_POINT('',(-17.3,21.5,0.));
#760=VERTEX_POINT('',#750);
#770=EDGE_CURVE('',#760,#520,#740,.T.);
#780=ORIENTED_EDGE('',*,*,#770,.T.);
#790=CARTESIAN_POINT('',(0.,21.5,0.));
#800=DIRECTION('',(0.,-1.,0.));
#810=DIRECTION('',(-1.,0.,0.));
#820=AXIS2_PLACEMENT_3D('',#790,#800,#810);
#830=CIRCLE('',#820,17.3);
#840=CARTESIAN_POINT('',(17.3,21.5,0.));
#850=VERTEX_POINT('',#840);
#860=EDGE_CURVE('',#760,#850,#830,.T.);
#870=ORIENTED_EDGE('',*,*,#860,.F.);
#880=CARTESIAN_POINT('',(17.3,22.5,0.));
#890=DIRECTION('',(-0.,0.,1.));
#900=DIRECTION('',(1.,0.,0.));
#910=AXIS2_PLACEMENT_3D('',#880,#890,#900);
#920=CIRCLE('',#910,1.);
#930=EDGE_CURVE('',#850,#420,#920,.T.);
#940=ORIENTED_EDGE('',*,*,#930,.F.);
#950=ORIENTED_EDGE('',*,*,#600,.F.);
#960=EDGE_LOOP('',(#950,#940,#870,#780));
#970=FACE_OUTER_BOUND('',#960,.T.);
#980=ADVANCED_FACE('',(#970),#690,.T.);
#990=CARTESIAN_POINT('',(-16.275,21.5,0.));
#1000=DIRECTION('',(-0.,1.,0.));
#1010=DIRECTION('',(1.,0.,0.));
#1020=AXIS2_PLACEMENT_3D('',#990,#1000,#1010);
#1030=PLANE('',#1020);
#1040=CARTESIAN_POINT('',(0.,21.5,0.));
#1050=DIRECTION('',(0.,1.,0.));
#1060=DIRECTION('',(1.,0.,0.));
#1070=AXIS2_PLACEMENT_3D('',#1040,#1050,#1060);
#1080=CIRCLE('',#1070,13.5);
#1090=CARTESIAN_POINT('',(-13.5,21.5,-1.65327317884893E-15));
#1100=VERTEX_POINT('',#1090);
#1110=CARTESIAN_POINT('',(13.5,21.5,0.));
#1120=VERTEX_POINT('',#1110);
#1130=EDGE_CURVE('',#1100,#1120,#1080,.T.);
#1140=ORIENTED_EDGE('',*,*,#1130,.T.);
#1150=EDGE_CURVE('',#1120,#1100,#1080,.T.);
#1160=ORIENTED_EDGE('',*,*,#1150,.T.);
#1170=EDGE_LOOP('',(#1160,#1140));
#1180=FACE_BOUND('',#1170,.T.);
#1190=ORIENTED_EDGE('',*,*,#860,.T.);
#1200=EDGE_CURVE('',#850,#760,#830,.T.);
#1210=ORIENTED_EDGE('',*,*,#1200,.T.);
#1220=EDGE_LOOP('',(#1210,#1190));
#1230=FACE_OUTER_BOUND('',#1220,.T.);
#1240=ADVANCED_FACE('',(#1180,#1230),#1030,.F.);
#1250=CARTESIAN_POINT('',(0.,21.5,0.));
#1260=DIRECTION('',(0.,1.,0.));
#1270=DIRECTION('',(1.,0.,0.));
#1280=AXIS2_PLACEMENT_3D('',#1250,#1260,#1270);
#1290=CONICAL_SURFACE('',#1280,13.5,1.13446401379631);
#1300=CARTESIAN_POINT('',(-13.5,21.5,-1.65327317884893E-15));
#1310=DIRECTION('',(-0.90630778703665,0.4226182617407,
-1.10990693043675E-16));
#1320=VECTOR('',#1310,14.8956019059936);
#1330=LINE('',#1300,#1320);
#1340=CARTESIAN_POINT('',(-9.46270907750133,19.6173803246392,0.));
#1350=VERTEX_POINT('',#1340);
#1360=EDGE_CURVE('',#1350,#1100,#1330,.T.);
#1370=ORIENTED_EDGE('',*,*,#1360,.T.);
#1380=CARTESIAN_POINT('',(0.,19.6173803246392,0.));
#1390=DIRECTION('',(0.,1.,0.));
#1400=DIRECTION('',(1.,0.,0.));
#1410=AXIS2_PLACEMENT_3D('',#1380,#1390,#1400);
#1420=CIRCLE('',#1410,9.46270907750133);
#1430=CARTESIAN_POINT('',(9.46270907750133,19.6173803246392,0.));
#1440=VERTEX_POINT('',#1430);
#1450=EDGE_CURVE('',#1440,#1350,#1420,.T.);
#1460=ORIENTED_EDGE('',*,*,#1450,.T.);
#1470=CARTESIAN_POINT('',(13.5,21.5,0.));
#1480=DIRECTION('',(0.90630778703665,0.4226182617407,0.));
#1490=VECTOR('',#1480,14.8956019059936);
#1500=LINE('',#1470,#1490);
#1510=EDGE_CURVE('',#1440,#1120,#1500,.T.);
#1520=ORIENTED_EDGE('',*,*,#1510,.F.);
#1530=ORIENTED_EDGE('',*,*,#1150,.F.);
#1540=EDGE_LOOP('',(#1530,#1520,#1460,#1370));
#1550=FACE_OUTER_BOUND('',#1540,.T.);
#1560=ADVANCED_FACE('',(#1550),#1290,.T.);
#1570=CARTESIAN_POINT('',(0.,14.1795336024193,0.));
#1580=DIRECTION('',(0.,1.,0.));
#1590=DIRECTION('',(1.,0.,0.));
#1600=AXIS2_PLACEMENT_3D('',#1570,#1580,#1590);
#1610=TOROIDAL_SURFACE('',#1600,11.9984186479455,6.);
#1620=CARTESIAN_POINT('',(11.9984186479455,14.1795336024193,0.));
#1630=DIRECTION('',(0.,0.,-1.));
#1640=DIRECTION('',(-1.,0.,0.));
#1650=AXIS2_PLACEMENT_3D('',#1620,#1630,#1640);
#1660=CIRCLE('',#1650,6.);
#1670=CARTESIAN_POINT('',(5.99933247700718,14.284248041043,0.));
#1680=VERTEX_POINT('',#1670);
#1690=EDGE_CURVE('',#1680,#1440,#1660,.T.);
#1700=ORIENTED_EDGE('',*,*,#1690,.F.);
#1710=ORIENTED_EDGE('',*,*,#1450,.F.);
#1720=CARTESIAN_POINT('',(-11.9984186479455,14.1795336024193,0.));
#1730=DIRECTION('',(0.,0.,1.));
#1740=DIRECTION('',(1.,0.,0.));
#1750=AXIS2_PLACEMENT_3D('',#1720,#1730,#1740);
#1760=CIRCLE('',#1750,6.);
#1770=CARTESIAN_POINT('',(-5.99933247700718,14.284248041043,0.));
#1780=VERTEX_POINT('',#1770);
#1790=EDGE_CURVE('',#1780,#1350,#1760,.T.);
#1800=ORIENTED_EDGE('',*,*,#1790,.T.);
#1810=CARTESIAN_POINT('',(0.,14.284248041043,0.));
#1820=DIRECTION('',(0.,1.,0.));
#1830=DIRECTION('',(1.,0.,0.));
#1840=AXIS2_PLACEMENT_3D('',#1810,#1820,#1830);
#1850=CIRCLE('',#1840,5.99933247700718);
#1860=EDGE_CURVE('',#1680,#1780,#1850,.T.);
#1870=ORIENTED_EDGE('',*,*,#1860,.T.);
#1880=EDGE_LOOP('',(#1870,#1800,#1710,#1700));
#1890=FACE_OUTER_BOUND('',#1880,.T.);
#1900=ADVANCED_FACE('',(#1890),#1610,.F.);
#1910=CARTESIAN_POINT('',(0.,10.8071588955346,0.));
#1920=DIRECTION('',(0.,1.,0.));
#1930=DIRECTION('',(1.,0.,0.));
#1940=AXIS2_PLACEMENT_3D('',#1910,#1920,#1930);
#1950=CONICAL_SURFACE('',#1940,5.93863966021112,0.0174532925199433);
#1960=CARTESIAN_POINT('',(5.93863966021112,10.8071588955346,0.));
#1970=DIRECTION('',(0.0174524064372835,0.999847695156391,0.));
#1980=VECTOR('',#1970,340.276263995574);
#1990=LINE('',#1960,#1980);
#2000=CARTESIAN_POINT('',(5.75,-1.77635683940025E-15,0.));
#2010=VERTEX_POINT('',#2000);
#2020=EDGE_CURVE('',#2010,#1680,#1990,.T.);
#2030=ORIENTED_EDGE('',*,*,#2020,.F.);
#2040=ORIENTED_EDGE('',*,*,#1860,.F.);
#2050=CARTESIAN_POINT('',(-5.93863966021112,10.8071588955346,
-7.27273605116707E-16));
#2060=DIRECTION('',(-0.0174524064372835,0.999847695156391,
-2.13730336808379E-18));
#2070=VECTOR('',#2060,340.276263995574);
#2080=LINE('',#2050,#2070);
#2090=CARTESIAN_POINT('',(-5.75,-7.105427357601E-15,
-7.04171909509728E-16));
#2100=VERTEX_POINT('',#2090);
#2110=EDGE_CURVE('',#2100,#1780,#2080,.T.);
#2120=ORIENTED_EDGE('',*,*,#2110,.T.);
#2130=CARTESIAN_POINT('',(0.,0.,0.));
#2140=DIRECTION('',(0.,1.,0.));
#2150=DIRECTION('',(1.,0.,0.));
#2160=AXIS2_PLACEMENT_3D('',#2130,#2140,#2150);
#2170=CIRCLE('',#2160,5.75);
#2180=EDGE_CURVE('',#2010,#2100,#2170,.T.);
#2190=ORIENTED_EDGE('',*,*,#2180,.T.);
#2200=EDGE_LOOP('',(#2190,#2120,#2040,#2030));
#2210=FACE_OUTER_BOUND('',#2200,.T.);
#2220=ADVANCED_FACE('',(#2210),#1950,.T.);
#2230=CARTESIAN_POINT('',(-2.875,0.,0.));
#2240=DIRECTION('',(-0.,1.,0.));
#2250=DIRECTION('',(1.,0.,0.));
#2260=AXIS2_PLACEMENT_3D('',#2230,#2240,#2250);
#2270=PLANE('',#2260);
#2280=CARTESIAN_POINT('',(0.,0.,0.));
#2290=DIRECTION('',(0.,-1.,0.));
#2300=DIRECTION('',(-1.,0.,0.));
#2310=AXIS2_PLACEMENT_3D('',#2280,#2290,#2300);
#2320=CIRCLE('',#2310,2.5);
#2330=CARTESIAN_POINT('',(2.5,0.,-3.06161699786838E-16));
#2340=VERTEX_POINT('',#2330);
#2350=CARTESIAN_POINT('',(-2.5,-2.22044604925031E-16,0.));
#2360=VERTEX_POINT('',#2350);
#2370=EDGE_CURVE('',#2340,#2360,#2320,.T.);
#2380=ORIENTED_EDGE('',*,*,#2370,.F.);
#2390=EDGE_CURVE('',#2360,#2340,#2320,.T.);
#2400=ORIENTED_EDGE('',*,*,#2390,.F.);
#2410=EDGE_LOOP('',(#2400,#2380));
#2420=FACE_BOUND('',#2410,.T.);
#2430=EDGE_CURVE('',#2100,#2010,#2170,.T.);
#2440=ORIENTED_EDGE('',*,*,#2430,.F.);
#2450=ORIENTED_EDGE('',*,*,#2180,.F.);
#2460=EDGE_LOOP('',(#2450,#2440));
#2470=FACE_OUTER_BOUND('',#2460,.T.);
#2480=ADVANCED_FACE('',(#2420,#2470),#2270,.F.);
#2490=CARTESIAN_POINT('',(0.,3.5,0.));
#2500=DIRECTION('',(0.,-1.,0.));
#2510=DIRECTION('',(1.,0.,0.));
#2520=AXIS2_PLACEMENT_3D('',#2490,#2500,#2510);
#2530=CYLINDRICAL_SURFACE('',#2520,1.65);
#2540=CARTESIAN_POINT('',(-1.65,3.5,2.02066721859313E-16));
#2550=DIRECTION('',(0.,-1.,0.));
#2560=VECTOR('',#2550,1.);
#2570=LINE('',#2540,#2560);
#2580=CARTESIAN_POINT('',(-1.65,7.,2.02066721859313E-16));
#2590=VERTEX_POINT('',#2580);
#2600=CARTESIAN_POINT('',(-1.65,0.85,2.02066721859313E-16));
#2610=VERTEX_POINT('',#2600);
#2620=EDGE_CURVE('',#2590,#2610,#2570,.T.);
#2630=ORIENTED_EDGE('',*,*,#2620,.T.);
#2640=CARTESIAN_POINT('',(0.,7.,0.));
#2650=DIRECTION('',(0.,1.,0.));
#2660=DIRECTION('',(1.,0.,0.));
#2670=AXIS2_PLACEMENT_3D('',#2640,#2650,#2660);
#2680=CIRCLE('',#2670,1.65);
#2690=CARTESIAN_POINT('',(1.65,7.,0.));
#2700=VERTEX_POINT('',#2690);
#2710=EDGE_CURVE('',#2700,#2590,#2680,.T.);
#2720=ORIENTED_EDGE('',*,*,#2710,.T.);
#2730=CARTESIAN_POINT('',(1.65,3.5,0.));
#2740=DIRECTION('',(0.,-1.,0.));
#2750=VECTOR('',#2740,1.);
#2760=LINE('',#2730,#2750);
#2770=CARTESIAN_POINT('',(1.65,0.850000000000001,0.));
#2780=VERTEX_POINT('',#2770);
#2790=EDGE_CURVE('',#2700,#2780,#2760,.T.);
#2800=ORIENTED_EDGE('',*,*,#2790,.F.);
#2810=CARTESIAN_POINT('',(0.,0.85,0.));
#2820=DIRECTION('',(0.,-1.,0.));
#2830=DIRECTION('',(-1.,0.,0.));
#2840=AXIS2_PLACEMENT_3D('',#2810,#2820,#2830);
#2850=CIRCLE('',#2840,1.65);
#2860=EDGE_CURVE('',#2610,#2780,#2850,.T.);
#2870=ORIENTED_EDGE('',*,*,#2860,.T.);
#2880=EDGE_LOOP('',(#2870,#2800,#2720,#2630));
#2890=FACE_OUTER_BOUND('',#2880,.T.);
#2900=ADVANCED_FACE('M4_211694',(#2890),#2530,.F.);
#2910=COLOUR_RGB('',1.,0.,0.);
#2920=FILL_AREA_STYLE_COLOUR('',#2910);
#2930=FILL_AREA_STYLE('',(#2920));
#2940=SURFACE_STYLE_FILL_AREA(#2930);
#2950=SURFACE_SIDE_STYLE('',(#2940));
#2960=SURFACE_STYLE_USAGE(.BOTH.,#2950);
#2970=PRESENTATION_STYLE_ASSIGNMENT((#2960));
#2980=CARTESIAN_POINT('',(1.6425,7.,0.));
#2990=DIRECTION('',(0.,-1.,0.));
#3000=DIRECTION('',(1.,0.,0.));
#3010=AXIS2_PLACEMENT_3D('',#2980,#2990,#3000);
#3020=PLANE('',#3010);
#3030=ORIENTED_EDGE('',*,*,#2710,.F.);
#3040=EDGE_CURVE('',#2590,#2700,#2680,.T.);
#3050=ORIENTED_EDGE('',*,*,#3040,.F.);
#3060=EDGE_LOOP('',(#3050,#3030));
#3070=FACE_OUTER_BOUND('',#3060,.T.);
#3080=CARTESIAN_POINT('',(0.,7.,0.));
#3090=DIRECTION('',(0.,1.,0.));
#3100=DIRECTION('',(1.,0.,0.));
#3110=AXIS2_PLACEMENT_3D('',#3080,#3090,#3100);
#3120=CIRCLE('',#3110,1.635);
#3130=CARTESIAN_POINT('',(1.635,7.,0.));
#3140=VERTEX_POINT('',#3130);
#3150=CARTESIAN_POINT('',(-1.635,7.,2.00229751660592E-16));
#3160=VERTEX_POINT('',#3150);
#3170=EDGE_CURVE('',#3140,#3160,#3120,.T.);
#3180=ORIENTED_EDGE('',*,*,#3170,.T.);
#3190=EDGE_CURVE('',#3160,#3140,#3120,.T.);
#3200=ORIENTED_EDGE('',*,*,#3190,.T.);
#3210=EDGE_LOOP('',(#3200,#3180));
#3220=FACE_BOUND('',#3210,.T.);
#3230=ADVANCED_FACE('',(#3070,#3220),#3020,.T.);
#3240=CARTESIAN_POINT('',(0.,8.,0.));
#3250=DIRECTION('',(0.,-1.,0.));
#3260=DIRECTION('',(1.,0.,0.));
#3270=AXIS2_PLACEMENT_3D('',#3240,#3250,#3260);
#3280=CYLINDRICAL_SURFACE('',#3270,1.635);
#3290=CARTESIAN_POINT('',(1.635,8.,0.));
#3300=DIRECTION('',(0.,-1.,0.));
#3310=VECTOR('',#3300,1.);
#3320=LINE('',#3290,#3310);
#3330=CARTESIAN_POINT('',(1.635,9.,0.));
#3340=VERTEX_POINT('',#3330);
#3350=EDGE_CURVE('',#3340,#3140,#3320,.T.);
#3360=ORIENTED_EDGE('',*,*,#3350,.T.);
#3370=CARTESIAN_POINT('',(0.,9.,0.));
#3380=DIRECTION('',(0.,1.,0.));
#3390=DIRECTION('',(1.,0.,0.));
#3400=AXIS2_PLACEMENT_3D('',#3370,#3380,#3390);
#3410=CIRCLE('',#3400,1.635);
#3420=CARTESIAN_POINT('',(-1.635,9.,2.00229751660592E-16));
#3430=VERTEX_POINT('',#3420);
#3440=EDGE_CURVE('',#3430,#3340,#3410,.T.);
#3450=ORIENTED_EDGE('',*,*,#3440,.T.);
#3460=CARTESIAN_POINT('',(-1.635,8.,2.00229751660592E-16));
#3470=DIRECTION('',(0.,-1.,0.));
#3480=VECTOR('',#3470,1.);
#3490=LINE('',#3460,#3480);
#3500=EDGE_CURVE('',#3430,#3160,#3490,.T.);
#3510=ORIENTED_EDGE('',*,*,#3500,.F.);
#3520=ORIENTED_EDGE('',*,*,#3190,.F.);
#3530=EDGE_LOOP('',(#3520,#3510,#3450,#3360));
#3540=FACE_OUTER_BOUND('',#3530,.T.);
#3550=ADVANCED_FACE('',(#3540),#3280,.F.);
#3560=CARTESIAN_POINT('',(0.,9.,0.));
#3570=DIRECTION('',(0.,-1.,0.));
#3580=DIRECTION('',(1.,0.,0.));
#3590=AXIS2_PLACEMENT_3D('',#3560,#3570,#3580);
#3600=CONICAL_SURFACE('',#3590,1.635,1.02974425867666);
#3610=CARTESIAN_POINT('',(1.635,9.,0.));
#3620=DIRECTION('',(0.857167300702113,-0.515038074910054,0.));
#3630=VECTOR('',#3620,1.90744560444706);
#3640=LINE('',#3610,#3630);
#3650=CARTESIAN_POINT('',(-2.22044604925031E-16,9.98240711211006,
2.46519032881566E-32));
#3660=VERTEX_POINT('',#3650);
#3670=EDGE_CURVE('',#3660,#3340,#3640,.T.);
#3680=ORIENTED_EDGE('',*,*,#3670,.T.);
#3690=CARTESIAN_POINT('',(-1.635,9.,2.00229751660592E-16));
#3700=DIRECTION('',(-0.857167300702113,-0.515038074910054,
1.04972719113862E-16));
#3710=VECTOR('',#3700,1.90744560444706);
#3720=LINE('',#3690,#3710);
#3730=EDGE_CURVE('',#3660,#3430,#3720,.T.);
#3740=ORIENTED_EDGE('',*,*,#3730,.F.);
#3750=ORIENTED_EDGE('',*,*,#3440,.F.);
#3760=EDGE_LOOP('',(#3750,#3740,#3680));
#3770=FACE_OUTER_BOUND('',#3760,.T.);
#3780=ADVANCED_FACE('',(#3770),#3600,.F.);
#3790=CARTESIAN_POINT('',(0.,0.85,0.));
#3800=DIRECTION('',(0.,-1.,0.));
#3810=DIRECTION('',(-1.,0.,0.));
#3820=AXIS2_PLACEMENT_3D('',#3790,#3800,#3810);
#3830=CONICAL_SURFACE('',#3820,1.65,0.785398163397448);
#3840=CARTESIAN_POINT('',(1.65,0.85,-2.02066721859313E-16));
#3850=DIRECTION('',(0.707106781186548,-0.707106781186548,
-8.65956056235493E-17));
#3860=VECTOR('',#3850,2.33345237791561);
#3870=LINE('',#3840,#3860);
#3880=EDGE_CURVE('',#2780,#2340,#3870,.T.);
#3890=ORIENTED_EDGE('',*,*,#3880,.F.);
#3900=ORIENTED_EDGE('',*,*,#2390,.T.);
#3910=CARTESIAN_POINT('',(-1.65,0.85,0.));
#3920=DIRECTION('',(-0.707106781186548,-0.707106781186548,0.));
#3930=VECTOR('',#3920,2.33345237791561);
#3940=LINE('',#3910,#3930);
#3950=EDGE_CURVE('',#2610,#2360,#3940,.T.);
#3960=ORIENTED_EDGE('',*,*,#3950,.T.);
#3970=ORIENTED_EDGE('',*,*,#2860,.F.);
#3980=EDGE_LOOP('',(#3970,#3960,#3900,#3890));
#3990=FACE_OUTER_BOUND('',#3980,.T.);
#4000=ADVANCED_FACE('',(#3990),#3830,.F.);
#4010=CARTESIAN_POINT('',(0.,0.85,0.));
#4020=DIRECTION('',(0.,-1.,0.));
#4030=DIRECTION('',(-1.,0.,0.));
#4040=AXIS2_PLACEMENT_3D('',#4010,#4020,#4030);
#4050=CONICAL_SURFACE('',#4040,1.65,0.785398163397448);
#4060=ORIENTED_EDGE('',*,*,#2370,.T.);
#4070=ORIENTED_EDGE('',*,*,#3880,.T.);
#4080=EDGE_CURVE('',#2780,#2610,#2850,.T.);
#4090=ORIENTED_EDGE('',*,*,#4080,.F.);
#4100=ORIENTED_EDGE('',*,*,#3950,.F.);
#4110=EDGE_LOOP('',(#4100,#4090,#4070,#4060));
#4120=FACE_OUTER_BOUND('',#4110,.T.);
#4130=ADVANCED_FACE('',(#4120),#4050,.F.);
#4140=CARTESIAN_POINT('',(0.,9.,0.));
#4150=DIRECTION('',(0.,-1.,0.));
#4160=DIRECTION('',(1.,0.,0.));
#4170=AXIS2_PLACEMENT_3D('',#4140,#4150,#4160);
#4180=CONICAL_SURFACE('',#4170,1.635,1.02974425867666);
#4190=ORIENTED_EDGE('',*,*,#3670,.F.);
#4200=EDGE_CURVE('',#3340,#3430,#3410,.T.);
#4210=ORIENTED_EDGE('',*,*,#4200,.F.);
#4220=ORIENTED_EDGE('',*,*,#3730,.T.);
#4230=EDGE_LOOP('',(#4220,#4210,#4190));
#4240=FACE_OUTER_BOUND('',#4230,.T.);
#4250=ADVANCED_FACE('',(#4240),#4180,.F.);
#4260=CARTESIAN_POINT('',(0.,10.8071588955346,0.));
#4270=DIRECTION('',(0.,1.,0.));
#4280=DIRECTION('',(1.,0.,0.));
#4290=AXIS2_PLACEMENT_3D('',#4260,#4270,#4280);
#4300=CONICAL_SURFACE('',#4290,5.93863966021112,0.0174532925199433);
#4310=ORIENTED_EDGE('',*,*,#2430,.T.);
#4320=ORIENTED_EDGE('',*,*,#2110,.F.);
#4330=EDGE_CURVE('',#1780,#1680,#1850,.T.);
#4340=ORIENTED_EDGE('',*,*,#4330,.F.);
#4350=ORIENTED_EDGE('',*,*,#2020,.T.);
#4360=EDGE_LOOP('',(#4350,#4340,#4320,#4310));
#4370=FACE_OUTER_BOUND('',#4360,.T.);
#4380=ADVANCED_FACE('',(#4370),#4300,.T.);
#4390=CARTESIAN_POINT('',(0.,21.5,0.));
#4400=DIRECTION('',(0.,1.,0.));
#4410=DIRECTION('',(1.,0.,0.));
#4420=AXIS2_PLACEMENT_3D('',#4390,#4400,#4410);
#4430=CONICAL_SURFACE('',#4420,13.5,1.13446401379631);
#4440=EDGE_CURVE('',#1350,#1440,#1420,.T.);
#4450=ORIENTED_EDGE('',*,*,#4440,.T.);
#4460=ORIENTED_EDGE('',*,*,#1360,.F.);
#4470=ORIENTED_EDGE('',*,*,#1130,.F.);
#4480=ORIENTED_EDGE('',*,*,#1510,.T.);
#4490=EDGE_LOOP('',(#4480,#4470,#4460,#4450));
#4500=FACE_OUTER_BOUND('',#4490,.T.);
#4510=ADVANCED_FACE('',(#4500),#4430,.T.);
#4520=CARTESIAN_POINT('',(0.,8.,0.));
#4530=DIRECTION('',(0.,-1.,0.));
#4540=DIRECTION('',(1.,0.,0.));
#4550=AXIS2_PLACEMENT_3D('',#4520,#4530,#4540);
#4560=CYLINDRICAL_SURFACE('',#4550,1.635);
#4570=ORIENTED_EDGE('',*,*,#3170,.F.);
#4580=ORIENTED_EDGE('',*,*,#3500,.T.);
#4590=ORIENTED_EDGE('',*,*,#4200,.T.);
#4600=ORIENTED_EDGE('',*,*,#3350,.F.);
#4610=EDGE_LOOP('',(#4600,#4590,#4580,#4570));
#4620=FACE_OUTER_BOUND('',#4610,.T.);
#4630=ADVANCED_FACE('',(#4620),#4560,.F.);
#4640=CARTESIAN_POINT('',(0.,3.5,0.));
#4650=DIRECTION('',(0.,-1.,0.));
#4660=DIRECTION('',(1.,0.,0.));
#4670=AXIS2_PLACEMENT_3D('',#4640,#4650,#4660);
#4680=CYLINDRICAL_SURFACE('',#4670,1.65);
#4690=ORIENTED_EDGE('',*,*,#2620,.F.);
#4700=ORIENTED_EDGE('',*,*,#4080,.T.);
#4710=ORIENTED_EDGE('',*,*,#2790,.T.);
#4720=ORIENTED_EDGE('',*,*,#3040,.T.);
#4730=EDGE_LOOP('',(#4720,#4710,#4700,#4690));
#4740=FACE_OUTER_BOUND('',#4730,.T.);
#4750=ADVANCED_FACE('',(#4740),#4680,.F.);
#4760=COLOUR_RGB('',1.,0.,0.);
#4770=FILL_AREA_STYLE_COLOUR('',#4760);
#4780=FILL_AREA_STYLE('',(#4770));
#4790=SURFACE_STYLE_FILL_AREA(#4780);
#4800=SURFACE_SIDE_STYLE('',(#4790));
#4810=SURFACE_STYLE_USAGE(.BOTH.,#4800);
#4820=PRESENTATION_STYLE_ASSIGNMENT((#4810));
#4830=CARTESIAN_POINT('',(0.,14.1795336024193,0.));
#4840=DIRECTION('',(0.,1.,0.));
#4850=DIRECTION('',(1.,0.,0.));
#4860=AXIS2_PLACEMENT_3D('',#4830,#4840,#4850);
#4870=TOROIDAL_SURFACE('',#4860,11.9984186479455,6.);
#4880=ORIENTED_EDGE('',*,*,#4330,.T.);
#4890=ORIENTED_EDGE('',*,*,#1790,.F.);
#4900=ORIENTED_EDGE('',*,*,#4440,.F.);
#4910=ORIENTED_EDGE('',*,*,#1690,.T.);
#4920=EDGE_LOOP('',(#4910,#4900,#4890,#4880));
#4930=FACE_OUTER_BOUND('',#4920,.T.);
#4940=ADVANCED_FACE('',(#4930),#4870,.F.);
#4950=CARTESIAN_POINT('',(0.,2.97735777576786,0.));
#4960=DIRECTION('',(0.,1.,0.));
#4970=DIRECTION('',(1.,0.,0.));
#4980=AXIS2_PLACEMENT_3D('',#4950,#4960,#4970);
#4990=SPHERICAL_SURFACE('',#4980,25.2226422242321);
#5000=ORIENTED_EDGE('',*,*,#150,.F.);
#5010=EDGE_CURVE('',#180,#140,#250,.T.);
#5020=ORIENTED_EDGE('',*,*,#5010,.T.);
#5030=ORIENTED_EDGE('',*,*,#190,.F.);
#5040=EDGE_LOOP('',(#5030,#5020,#5000));
#5050=FACE_OUTER_BOUND('',#5040,.T.);
#5060=ADVANCED_FACE('',(#5050),#4990,.T.);
#5070=CARTESIAN_POINT('',(0.,22.45,0.));
#5080=DIRECTION('',(0.,1.,0.));
#5090=DIRECTION('',(-1.,0.,0.));
#5100=AXIS2_PLACEMENT_3D('',#5070,#5080,#5090);
#5110=TOROIDAL_SURFACE('',#5100,15.55,2.75);
#5120=ORIENTED_EDGE('',*,*,#5010,.F.);
#5130=ORIENTED_EDGE('',*,*,#430,.F.);
#5140=EDGE_CURVE('',#520,#420,#590,.T.);
#5150=ORIENTED_EDGE('',*,*,#5140,.T.);
#5160=ORIENTED_EDGE('',*,*,#530,.T.);
#5170=EDGE_LOOP('',(#5160,#5150,#5130,#5120));
#5180=FACE_OUTER_BOUND('',#5170,.T.);
#5190=ADVANCED_FACE('',(#5180),#5110,.T.);
#5200=CARTESIAN_POINT('',(0.,22.5,0.));
#5210=DIRECTION('',(0.,-1.,0.));
#5220=DIRECTION('',(-1.,0.,0.));
#5230=AXIS2_PLACEMENT_3D('',#5200,#5210,#5220);
#5240=TOROIDAL_SURFACE('',#5230,17.3,1.);
#5250=ORIENTED_EDGE('',*,*,#770,.F.);
#5260=ORIENTED_EDGE('',*,*,#5140,.F.);
#5270=ORIENTED_EDGE('',*,*,#930,.T.);
#5280=ORIENTED_EDGE('',*,*,#1200,.F.);
#5290=EDGE_LOOP('',(#5280,#5270,#5260,#5250));
#5300=FACE_OUTER_BOUND('',#5290,.T.);
#5310=ADVANCED_FACE('',(#5300),#5240,.T.);
#5320=CLOSED_SHELL('',(#300,#640,#980,#1240,#1560,#1900,#2220,#2480,
#2900,#3230,#3550,#3780,#4000,#4130,#4250,#4380,#4510,#4630,#4750,#4940,
#5060,#5190,#5310));
#5330=MANIFOLD_SOLID_BREP('',#5320);
#5340=CARTESIAN_POINT('',(0.,0.,0.));
#5350=DIRECTION('',(0.,0.,1.));
#5360=DIRECTION('',(1.,0.,0.));
#5370=AXIS2_PLACEMENT_3D('',#5340,#5350,#5360);
#5380=APPLICATION_CONTEXT(' ');
#5390=APPLICATION_PROTOCOL_DEFINITION(' ','automotive_design',1998,#5380
);
#5400=PRODUCT_CONTEXT('',#5380,'mechanical');
#5410=PRODUCT_DEFINITION_CONTEXT('part definition',#5380,'design');
#5420=PRODUCT('ZN-11397','ZN-11397','',(#5400));
#5430=PRODUCT_RELATED_PRODUCT_CATEGORY('part',' ',(#5420));
#5440=PRODUCT_DEFINITION_FORMATION_WITH_SPECIFIED_SOURCE('','',#5420,
.BOUGHT.);
#5450=PRODUCT_DEFINITION('',' ',#5440,#5410);
#5460=PRODUCT_DEFINITION_SHAPE('','',#5450);
#5470=DIMENSIONAL_EXPONENTS(1.,0.,0.,0.,0.,0.,0.);
#5480=DIMENSIONAL_EXPONENTS(0.,0.,0.,0.,0.,0.,0.);
#5490=DIMENSIONAL_EXPONENTS(0.,0.,0.,0.,0.,0.,0.);
#5500=(LENGTH_UNIT() NAMED_UNIT(*) SI_UNIT(.MILLI.,.METRE.));
#5510=(NAMED_UNIT(*) PLANE_ANGLE_UNIT() SI_UNIT($,.RADIAN.));
#5520=(NAMED_UNIT(*) SI_UNIT($,.STERADIAN.) SOLID_ANGLE_UNIT());
#5530=(GEOMETRIC_REPRESENTATION_CONTEXT(3) 
GLOBAL_UNCERTAINTY_ASSIGNED_CONTEXT((#5540)) 
GLOBAL_UNIT_ASSIGNED_CONTEXT((#5500,#5510,#5520)) REPRESENTATION_CONTEXT
('',''));
#5540=UNCERTAINTY_MEASURE_WITH_UNIT(LENGTH_MEASURE(1.E-6),#5500,
'distance_accuracy_value','maximum gap value');
#5550=ADVANCED_BREP_SHAPE_REPRESENTATION('',(#5370,#5330),#5530);
#5560=SHAPE_DEFINITION_REPRESENTATION(#5460,#5550);
#5570=COLOUR_RGB('',0.600000023841858,0.600000023841858,
0.600000023841858);
#5580=FILL_AREA_STYLE_COLOUR('',#5570);
#5590=FILL_AREA_STYLE('',(#5580));
#5600=SURFACE_STYLE_FILL_AREA(#5590);
#5610=SURFACE_SIDE_STYLE('',(#5600));
#5620=SURFACE_STYLE_USAGE(.BOTH.,#5610);
#5630=PRESENTATION_STYLE_ASSIGNMENT((#5620));
#5640=STYLED_ITEM('',(#5630),#5330);
#5650=OVER_RIDING_STYLED_ITEM('',(#2970),#2900,#5640);
#5660=OVER_RIDING_STYLED_ITEM('',(#4820),#4750,#5640);
#5670=DRAUGHTING_MODEL('',(#5640,#5650,#5660),#5530);
ENDSEC;
END-ISO-10303-21;
