ISO-10303-21;
HEADER;
FILE_DESCRIPTION(('Creo Elements/Direct Modeling STEP Export'),'2;1');
FILE_NAME('1540-52.stp','2019-03-19T 8:18:39',(''),(''),
'Creo Elements/Direct Modeling STEP processor for AP214 (Solid Model)',
'Creo Elements/Direct Modeling 20.0  12-Nov-2016 (C) Parametric Technolo
gy GmbH','');
FILE_SCHEMA(('AUTOMOTIVE_DESIGN { 1 0 10303 214 1 1 1 1 }'));
ENDSEC;
DATA;
#10=CARTESIAN_POINT('',(0.,0.,26.));
#20=DIRECTION('',(0.,0.,1.));
#30=DIRECTION('',(1.,0.,0.));
#40=AXIS2_PLACEMENT_3D('',#10,#20,#30);
#50=PLANE('',#40);
#60=CARTESIAN_POINT('',(-2.2,0.,26.));
#70=DIRECTION('',(0.,1.,0.));
#80=VECTOR('',#70,1.);
#90=LINE('',#60,#80);
#100=CARTESIAN_POINT('',(-2.2,18.0399335546339,26.));
#110=VERTEX_POINT('',#100);
#120=CARTESIAN_POINT('',(-2.2,20.,26.));
#130=VERTEX_POINT('',#120);
#140=EDGE_CURVE('',#110,#130,#90,.T.);
#150=ORIENTED_EDGE('',*,*,#140,.F.);
#160=CARTESIAN_POINT('',(0.,20.,26.));
#170=DIRECTION('',(1.,0.,0.));
#180=VECTOR('',#170,1.);
#190=LINE('',#160,#180);
#200=CARTESIAN_POINT('',(0.,20.,26.));
#210=VERTEX_POINT('',#200);
#220=EDGE_CURVE('',#130,#210,#190,.T.);
#230=ORIENTED_EDGE('',*,*,#220,.F.);
#240=CARTESIAN_POINT('',(0.,0.,26.));
#250=DIRECTION('',(0.,-1.,0.));
#260=VECTOR('',#250,1.);
#270=LINE('',#240,#260);
#280=CARTESIAN_POINT('',(0.,0.,26.));
#290=VERTEX_POINT('',#280);
#300=EDGE_CURVE('',#210,#290,#270,.T.);
#310=ORIENTED_EDGE('',*,*,#300,.F.);
#320=CARTESIAN_POINT('',(0.,0.,26.));
#330=DIRECTION('',(-1.,0.,0.));
#340=VECTOR('',#330,1.);
#350=LINE('',#320,#340);
#360=CARTESIAN_POINT('',(-7.,0.,26.));
#370=VERTEX_POINT('',#360);
#380=EDGE_CURVE('',#290,#370,#350,.T.);
#390=ORIENTED_EDGE('',*,*,#380,.F.);
#400=CARTESIAN_POINT('',(-7.,0.,26.));
#410=DIRECTION('',(0.,1.,0.));
#420=VECTOR('',#410,1.);
#430=LINE('',#400,#420);
#440=CARTESIAN_POINT('',(-7.,6.,26.));
#450=VERTEX_POINT('',#440);
#460=EDGE_CURVE('',#370,#450,#430,.T.);
#470=ORIENTED_EDGE('',*,*,#460,.F.);
#480=CARTESIAN_POINT('',(-19.7,18.0399335546339,26.));
#490=DIRECTION('',(0.,0.,1.));
#500=DIRECTION('',(1.,0.,0.));
#510=AXIS2_PLACEMENT_3D('',#480,#490,#500);
#520=CIRCLE('',#510,17.5);
#530=EDGE_CURVE('',#450,#110,#520,.T.);
#540=ORIENTED_EDGE('',*,*,#530,.F.);
#550=EDGE_LOOP('',(#540,#470,#390,#310,#230,#150));
#560=FACE_OUTER_BOUND('',#550,.T.);
#570=ADVANCED_FACE('',(#560),#50,.T.);
#580=CARTESIAN_POINT('',(-2.2,20.,0.));
#590=DIRECTION('',(-1.,0.,0.));
#600=DIRECTION('',(0.,1.,0.));
#610=AXIS2_PLACEMENT_3D('',#580,#590,#600);
#620=PLANE('',#610);
#630=ORIENTED_EDGE('',*,*,#140,.T.);
#640=CARTESIAN_POINT('',(-2.2,18.0399335546339,0.));
#650=DIRECTION('',(0.,0.,-1.));
#660=VECTOR('',#650,1.);
#670=LINE('',#640,#660);
#680=CARTESIAN_POINT('',(-2.2,18.0399335546339,-26.));
#690=VERTEX_POINT('',#680);
#700=EDGE_CURVE('',#110,#690,#670,.T.);
#710=ORIENTED_EDGE('',*,*,#700,.F.);
#720=CARTESIAN_POINT('',(-2.2,0.,-26.));
#730=DIRECTION('',(0.,1.,0.));
#740=VECTOR('',#730,1.);
#750=LINE('',#720,#740);
#760=CARTESIAN_POINT('',(-2.2,20.,-26.));
#770=VERTEX_POINT('',#760);
#780=EDGE_CURVE('',#690,#770,#750,.T.);
#790=ORIENTED_EDGE('',*,*,#780,.F.);
#800=CARTESIAN_POINT('',(-2.2,20.,0.));
#810=DIRECTION('',(0.,0.,1.));
#820=VECTOR('',#810,1.);
#830=LINE('',#800,#820);
#840=EDGE_CURVE('',#770,#130,#830,.T.);
#850=ORIENTED_EDGE('',*,*,#840,.F.);
#860=EDGE_LOOP('',(#850,#790,#710,#630));
#870=FACE_OUTER_BOUND('',#860,.T.);
#880=ADVANCED_FACE('',(#870),#620,.T.);
#890=CARTESIAN_POINT('',(-19.7,18.0399335546339,0.));
#900=DIRECTION('',(0.,0.,1.));
#910=DIRECTION('',(1.,0.,0.));
#920=AXIS2_PLACEMENT_3D('',#890,#900,#910);
#930=CYLINDRICAL_SURFACE('',#920,17.5);
#940=ORIENTED_EDGE('',*,*,#530,.T.);
#950=CARTESIAN_POINT('',(-7.,6.,0.));
#960=DIRECTION('',(0.,0.,1.));
#970=VECTOR('',#960,1.);
#980=LINE('',#950,#970);
#990=CARTESIAN_POINT('',(-7.,6.,-26.));
#1000=VERTEX_POINT('',#990);
#1010=EDGE_CURVE('',#1000,#450,#980,.T.);
#1020=ORIENTED_EDGE('',*,*,#1010,.T.);
#1030=CARTESIAN_POINT('',(-19.7,18.0399335546339,-26.));
#1040=DIRECTION('',(0.,0.,1.));
#1050=DIRECTION('',(1.,0.,0.));
#1060=AXIS2_PLACEMENT_3D('',#1030,#1040,#1050);
#1070=CIRCLE('',#1060,17.5);
#1080=EDGE_CURVE('',#1000,#690,#1070,.T.);
#1090=ORIENTED_EDGE('',*,*,#1080,.F.);
#1100=ORIENTED_EDGE('',*,*,#700,.T.);
#1110=EDGE_LOOP('',(#1100,#1090,#1020,#940));
#1120=FACE_OUTER_BOUND('',#1110,.T.);
#1130=ADVANCED_FACE('',(#1120),#930,.F.);
#1140=CARTESIAN_POINT('',(0.,0.,-26.));
#1150=DIRECTION('',(0.,0.,1.));
#1160=DIRECTION('',(1.,0.,0.));
#1170=AXIS2_PLACEMENT_3D('',#1140,#1150,#1160);
#1180=PLANE('',#1170);
#1190=ORIENTED_EDGE('',*,*,#1080,.T.);
#1200=CARTESIAN_POINT('',(-7.,0.,-26.));
#1210=DIRECTION('',(0.,-1.,0.));
#1220=VECTOR('',#1210,1.);
#1230=LINE('',#1200,#1220);
#1240=CARTESIAN_POINT('',(-7.,0.,-26.));
#1250=VERTEX_POINT('',#1240);
#1260=EDGE_CURVE('',#1000,#1250,#1230,.T.);
#1270=ORIENTED_EDGE('',*,*,#1260,.F.);
#1280=CARTESIAN_POINT('',(0.,0.,-26.));
#1290=DIRECTION('',(-1.,0.,0.));
#1300=VECTOR('',#1290,1.);
#1310=LINE('',#1280,#1300);
#1320=CARTESIAN_POINT('',(0.,0.,-26.));
#1330=VERTEX_POINT('',#1320);
#1340=EDGE_CURVE('',#1330,#1250,#1310,.T.);
#1350=ORIENTED_EDGE('',*,*,#1340,.T.);
#1360=CARTESIAN_POINT('',(0.,0.,-26.));
#1370=DIRECTION('',(0.,-1.,0.));
#1380=VECTOR('',#1370,1.);
#1390=LINE('',#1360,#1380);
#1400=CARTESIAN_POINT('',(0.,20.,-26.));
#1410=VERTEX_POINT('',#1400);
#1420=EDGE_CURVE('',#1410,#1330,#1390,.T.);
#1430=ORIENTED_EDGE('',*,*,#1420,.T.);
#1440=CARTESIAN_POINT('',(0.,20.,-26.));
#1450=DIRECTION('',(1.,0.,0.));
#1460=VECTOR('',#1450,1.);
#1470=LINE('',#1440,#1460);
#1480=EDGE_CURVE('',#770,#1410,#1470,.T.);
#1490=ORIENTED_EDGE('',*,*,#1480,.T.);
#1500=ORIENTED_EDGE('',*,*,#780,.T.);
#1510=EDGE_LOOP('',(#1500,#1490,#1430,#1350,#1270,#1190));
#1520=FACE_OUTER_BOUND('',#1510,.T.);
#1530=ADVANCED_FACE('',(#1520),#1180,.F.);
#1540=CARTESIAN_POINT('',(-7.,0.,0.));
#1550=DIRECTION('',(-0.,-1.,-0.));
#1560=DIRECTION('',(-1.,0.,0.));
#1570=AXIS2_PLACEMENT_3D('',#1540,#1550,#1560);
#1580=PLANE('',#1570);
#1590=ORIENTED_EDGE('',*,*,#380,.T.);
#1600=CARTESIAN_POINT('',(0.,0.,0.));
#1610=DIRECTION('',(0.,0.,1.));
#1620=VECTOR('',#1610,1.);
#1630=LINE('',#1600,#1620);
#1640=EDGE_CURVE('',#1330,#290,#1630,.T.);
#1650=ORIENTED_EDGE('',*,*,#1640,.T.);
#1660=ORIENTED_EDGE('',*,*,#1340,.F.);
#1670=CARTESIAN_POINT('',(-7.,0.,0.));
#1680=DIRECTION('',(0.,0.,-1.));
#1690=VECTOR('',#1680,1.);
#1700=LINE('',#1670,#1690);
#1710=EDGE_CURVE('',#370,#1250,#1700,.T.);
#1720=ORIENTED_EDGE('',*,*,#1710,.T.);
#1730=EDGE_LOOP('',(#1720,#1660,#1650,#1590));
#1740=FACE_OUTER_BOUND('',#1730,.T.);
#1750=CARTESIAN_POINT('',(-3.5,0.,-16.));
#1760=DIRECTION('',(0.,-1.,0.));
#1770=DIRECTION('',(1.,0.,0.));
#1780=AXIS2_PLACEMENT_3D('',#1750,#1760,#1770);
#1790=CIRCLE('',#1780,1.65);
#1800=CARTESIAN_POINT('',(-1.85,0.,-16.));
#1810=VERTEX_POINT('',#1800);
#1820=CARTESIAN_POINT('',(-5.15,0.,-16.));
#1830=VERTEX_POINT('',#1820);
#1840=EDGE_CURVE('',#1810,#1830,#1790,.T.);
#1850=ORIENTED_EDGE('',*,*,#1840,.F.);
#1860=EDGE_CURVE('',#1830,#1810,#1790,.T.);
#1870=ORIENTED_EDGE('',*,*,#1860,.F.);
#1880=EDGE_LOOP('',(#1870,#1850));
#1890=FACE_BOUND('',#1880,.T.);
#1900=CARTESIAN_POINT('',(-3.5,0.,16.));
#1910=DIRECTION('',(0.,-1.,0.));
#1920=DIRECTION('',(1.,0.,0.));
#1930=AXIS2_PLACEMENT_3D('',#1900,#1910,#1920);
#1940=CIRCLE('',#1930,1.65);
#1950=CARTESIAN_POINT('',(-1.85,0.,16.));
#1960=VERTEX_POINT('',#1950);
#1970=CARTESIAN_POINT('',(-5.15,0.,16.));
#1980=VERTEX_POINT('',#1970);
#1990=EDGE_CURVE('',#1960,#1980,#1940,.T.);
#2000=ORIENTED_EDGE('',*,*,#1990,.F.);
#2010=EDGE_CURVE('',#1980,#1960,#1940,.T.);
#2020=ORIENTED_EDGE('',*,*,#2010,.F.);
#2030=EDGE_LOOP('',(#2020,#2000));
#2040=FACE_BOUND('',#2030,.T.);
#2050=ADVANCED_FACE('',(#1740,#1890,#2040),#1580,.T.);
#2060=CARTESIAN_POINT('',(-7.,5.5,0.));
#2070=DIRECTION('',(-1.,0.,0.));
#2080=DIRECTION('',(0.,1.,0.));
#2090=AXIS2_PLACEMENT_3D('',#2060,#2070,#2080);
#2100=PLANE('',#2090);
#2110=ORIENTED_EDGE('',*,*,#460,.T.);
#2120=ORIENTED_EDGE('',*,*,#1710,.F.);
#2130=ORIENTED_EDGE('',*,*,#1260,.T.);
#2140=ORIENTED_EDGE('',*,*,#1010,.F.);
#2150=EDGE_LOOP('',(#2140,#2130,#2120,#2110));
#2160=FACE_OUTER_BOUND('',#2150,.T.);
#2170=ADVANCED_FACE('',(#2160),#2100,.T.);
#2180=CARTESIAN_POINT('',(0.,20.,0.));
#2190=DIRECTION('',(-0.,1.,0.));
#2200=DIRECTION('',(1.,0.,0.));
#2210=AXIS2_PLACEMENT_3D('',#2180,#2190,#2200);
#2220=PLANE('',#2210);
#2230=ORIENTED_EDGE('',*,*,#220,.T.);
#2240=ORIENTED_EDGE('',*,*,#840,.T.);
#2250=ORIENTED_EDGE('',*,*,#1480,.F.);
#2260=CARTESIAN_POINT('',(0.,20.,0.));
#2270=DIRECTION('',(0.,0.,1.));
#2280=VECTOR('',#2270,1.);
#2290=LINE('',#2260,#2280);
#2300=EDGE_CURVE('',#1410,#210,#2290,.T.);
#2310=ORIENTED_EDGE('',*,*,#2300,.F.);
#2320=EDGE_LOOP('',(#2310,#2250,#2240,#2230));
#2330=FACE_OUTER_BOUND('',#2320,.T.);
#2340=ADVANCED_FACE('',(#2330),#2220,.T.);
#2350=CARTESIAN_POINT('',(0.,0.,0.));
#2360=DIRECTION('',(1.,0.,0.));
#2370=DIRECTION('',(0.,-1.,0.));
#2380=AXIS2_PLACEMENT_3D('',#2350,#2360,#2370);
#2390=PLANE('',#2380);
#2400=ORIENTED_EDGE('',*,*,#300,.T.);
#2410=ORIENTED_EDGE('',*,*,#2300,.T.);
#2420=ORIENTED_EDGE('',*,*,#1420,.F.);
#2430=ORIENTED_EDGE('',*,*,#1640,.F.);
#2440=EDGE_LOOP('',(#2430,#2420,#2410,#2400));
#2450=FACE_OUTER_BOUND('',#2440,.T.);
#2460=ADVANCED_FACE('',(#2450),#2390,.T.);
#2470=CARTESIAN_POINT('',(-3.5,2.5,-16.));
#2480=DIRECTION('',(0.,-1.,0.));
#2490=DIRECTION('',(1.,0.,0.));
#2500=AXIS2_PLACEMENT_3D('',#2470,#2480,#2490);
#2510=CYLINDRICAL_SURFACE('',#2500,1.65);
#2520=CARTESIAN_POINT('',(-5.15,2.5,-16.));
#2530=DIRECTION('',(0.,-1.,0.));
#2540=VECTOR('',#2530,1.);
#2550=LINE('',#2520,#2540);
#2560=CARTESIAN_POINT('',(-5.15,5.,-16.));
#2570=VERTEX_POINT('',#2560);
#2580=EDGE_CURVE('',#2570,#1830,#2550,.T.);
#2590=ORIENTED_EDGE('',*,*,#2580,.T.);
#2600=CARTESIAN_POINT('',(-3.5,5.,-16.));
#2610=DIRECTION('',(0.,1.,0.));
#2620=DIRECTION('',(1.,0.,0.));
#2630=AXIS2_PLACEMENT_3D('',#2600,#2610,#2620);
#2640=CIRCLE('',#2630,1.65);
#2650=CARTESIAN_POINT('',(-1.85,5.,-16.));
#2660=VERTEX_POINT('',#2650);
#2670=EDGE_CURVE('',#2660,#2570,#2640,.T.);
#2680=ORIENTED_EDGE('',*,*,#2670,.T.);
#2690=CARTESIAN_POINT('',(-1.85,2.5,-16.));
#2700=DIRECTION('',(0.,-1.,0.));
#2710=VECTOR('',#2700,1.);
#2720=LINE('',#2690,#2710);
#2730=EDGE_CURVE('',#2660,#1810,#2720,.T.);
#2740=ORIENTED_EDGE('',*,*,#2730,.F.);
#2750=ORIENTED_EDGE('',*,*,#1860,.T.);
#2760=EDGE_LOOP('',(#2750,#2740,#2680,#2590));
#2770=FACE_OUTER_BOUND('',#2760,.T.);
#2780=ADVANCED_FACE('M4-0.7_1598553',(#2770),#2510,.F.);
#2790=COLOUR_RGB('',1.,0.,0.);
#2800=FILL_AREA_STYLE_COLOUR('',#2790);
#2810=FILL_AREA_STYLE('',(#2800));
#2820=SURFACE_STYLE_FILL_AREA(#2810);
#2830=SURFACE_SIDE_STYLE('',(#2820));
#2840=SURFACE_STYLE_USAGE(.BOTH.,#2830);
#2850=PRESENTATION_STYLE_ASSIGNMENT((#2840));
#2860=CARTESIAN_POINT('',(-1.8575,5.,-16.));
#2870=DIRECTION('',(0.,-1.,0.));
#2880=DIRECTION('',(1.,0.,0.));
#2890=AXIS2_PLACEMENT_3D('',#2860,#2870,#2880);
#2900=PLANE('',#2890);
#2910=ORIENTED_EDGE('',*,*,#2670,.F.);
#2920=EDGE_CURVE('',#2570,#2660,#2640,.T.);
#2930=ORIENTED_EDGE('',*,*,#2920,.F.);
#2940=EDGE_LOOP('',(#2930,#2910));
#2950=FACE_OUTER_BOUND('',#2940,.T.);
#2960=CARTESIAN_POINT('',(-3.5,5.,-16.));
#2970=DIRECTION('',(0.,1.,0.));
#2980=DIRECTION('',(1.,0.,0.));
#2990=AXIS2_PLACEMENT_3D('',#2960,#2970,#2980);
#3000=CIRCLE('',#2990,1.635);
#3010=CARTESIAN_POINT('',(-1.865,5.,-16.));
#3020=VERTEX_POINT('',#3010);
#3030=CARTESIAN_POINT('',(-5.135,5.,-16.));
#3040=VERTEX_POINT('',#3030);
#3050=EDGE_CURVE('',#3020,#3040,#3000,.T.);
#3060=ORIENTED_EDGE('',*,*,#3050,.T.);
#3070=EDGE_CURVE('',#3040,#3020,#3000,.T.);
#3080=ORIENTED_EDGE('',*,*,#3070,.T.);
#3090=EDGE_LOOP('',(#3080,#3060));
#3100=FACE_BOUND('',#3090,.T.);
#3110=ADVANCED_FACE('',(#2950,#3100),#2900,.T.);
#3120=CARTESIAN_POINT('',(-3.5,5.5,-16.));
#3130=DIRECTION('',(0.,-1.,0.));
#3140=DIRECTION('',(1.,0.,0.));
#3150=AXIS2_PLACEMENT_3D('',#3120,#3130,#3140);
#3160=CYLINDRICAL_SURFACE('',#3150,1.635);
#3170=CARTESIAN_POINT('',(-1.865,5.5,-16.));
#3180=DIRECTION('',(0.,-1.,0.));
#3190=VECTOR('',#3180,1.);
#3200=LINE('',#3170,#3190);
#3210=CARTESIAN_POINT('',(-1.865,6.,-16.));
#3220=VERTEX_POINT('',#3210);
#3230=EDGE_CURVE('',#3220,#3020,#3200,.T.);
#3240=ORIENTED_EDGE('',*,*,#3230,.T.);
#3250=CARTESIAN_POINT('',(-3.5,6.,-16.));
#3260=DIRECTION('',(0.,1.,0.));
#3270=DIRECTION('',(1.,0.,0.));
#3280=AXIS2_PLACEMENT_3D('',#3250,#3260,#3270);
#3290=CIRCLE('',#3280,1.635);
#3300=CARTESIAN_POINT('',(-5.135,6.,-16.));
#3310=VERTEX_POINT('',#3300);
#3320=EDGE_CURVE('',#3310,#3220,#3290,.T.);
#3330=ORIENTED_EDGE('',*,*,#3320,.T.);
#3340=CARTESIAN_POINT('',(-5.135,5.5,-16.));
#3350=DIRECTION('',(0.,-1.,0.));
#3360=VECTOR('',#3350,1.);
#3370=LINE('',#3340,#3360);
#3380=EDGE_CURVE('',#3310,#3040,#3370,.T.);
#3390=ORIENTED_EDGE('',*,*,#3380,.F.);
#3400=ORIENTED_EDGE('',*,*,#3070,.F.);
#3410=EDGE_LOOP('',(#3400,#3390,#3330,#3240));
#3420=FACE_OUTER_BOUND('',#3410,.T.);
#3430=ADVANCED_FACE('',(#3420),#3160,.F.);
#3440=CARTESIAN_POINT('',(-3.5,6.,-16.));
#3450=DIRECTION('',(0.,-1.,0.));
#3460=DIRECTION('',(1.,0.,0.));
#3470=AXIS2_PLACEMENT_3D('',#3440,#3450,#3460);
#3480=CONICAL_SURFACE('',#3470,1.635,1.02974425867665);
#3490=CARTESIAN_POINT('',(-1.865,6.,-16.));
#3500=DIRECTION('',(0.857167300702112,-0.515038074910054,0.));
#3510=VECTOR('',#3500,1.90744560444707);
#3520=LINE('',#3490,#3510);
#3530=CARTESIAN_POINT('',(-3.5,6.98240711211006,-16.));
#3540=VERTEX_POINT('',#3530);
#3550=EDGE_CURVE('',#3540,#3220,#3520,.T.);
#3560=ORIENTED_EDGE('',*,*,#3550,.T.);
#3570=CARTESIAN_POINT('',(-5.135,6.,-16.));
#3580=DIRECTION('',(-0.857167300702112,-0.515038074910054,0.));
#3590=VECTOR('',#3580,1.90744560444707);
#3600=LINE('',#3570,#3590);
#3610=EDGE_CURVE('',#3540,#3310,#3600,.T.);
#3620=ORIENTED_EDGE('',*,*,#3610,.F.);
#3630=ORIENTED_EDGE('',*,*,#3320,.F.);
#3640=EDGE_LOOP('',(#3630,#3620,#3560));
#3650=FACE_OUTER_BOUND('',#3640,.T.);
#3660=ADVANCED_FACE('',(#3650),#3480,.F.);
#3670=CARTESIAN_POINT('',(-3.5,2.5,16.));
#3680=DIRECTION('',(0.,-1.,0.));
#3690=DIRECTION('',(1.,0.,0.));
#3700=AXIS2_PLACEMENT_3D('',#3670,#3680,#3690);
#3710=CYLINDRICAL_SURFACE('',#3700,1.65);
#3720=CARTESIAN_POINT('',(-5.15,2.5,16.));
#3730=DIRECTION('',(0.,-1.,0.));
#3740=VECTOR('',#3730,1.);
#3750=LINE('',#3720,#3740);
#3760=CARTESIAN_POINT('',(-5.15,5.,16.));
#3770=VERTEX_POINT('',#3760);
#3780=EDGE_CURVE('',#3770,#1980,#3750,.T.);
#3790=ORIENTED_EDGE('',*,*,#3780,.T.);
#3800=CARTESIAN_POINT('',(-3.5,5.,16.));
#3810=DIRECTION('',(0.,1.,0.));
#3820=DIRECTION('',(1.,0.,0.));
#3830=AXIS2_PLACEMENT_3D('',#3800,#3810,#3820);
#3840=CIRCLE('',#3830,1.65);
#3850=CARTESIAN_POINT('',(-1.85,5.,16.));
#3860=VERTEX_POINT('',#3850);
#3870=EDGE_CURVE('',#3860,#3770,#3840,.T.);
#3880=ORIENTED_EDGE('',*,*,#3870,.T.);
#3890=CARTESIAN_POINT('',(-1.85,2.5,16.));
#3900=DIRECTION('',(0.,-1.,0.));
#3910=VECTOR('',#3900,1.);
#3920=LINE('',#3890,#3910);
#3930=EDGE_CURVE('',#3860,#1960,#3920,.T.);
#3940=ORIENTED_EDGE('',*,*,#3930,.F.);
#3950=ORIENTED_EDGE('',*,*,#2010,.T.);
#3960=EDGE_LOOP('',(#3950,#3940,#3880,#3790));
#3970=FACE_OUTER_BOUND('',#3960,.T.);
#3980=ADVANCED_FACE('M4-0.7_1599742',(#3970),#3710,.F.);
#3990=COLOUR_RGB('',1.,0.,0.);
#4000=FILL_AREA_STYLE_COLOUR('',#3990);
#4010=FILL_AREA_STYLE('',(#4000));
#4020=SURFACE_STYLE_FILL_AREA(#4010);
#4030=SURFACE_SIDE_STYLE('',(#4020));
#4040=SURFACE_STYLE_USAGE(.BOTH.,#4030);
#4050=PRESENTATION_STYLE_ASSIGNMENT((#4040));
#4060=CARTESIAN_POINT('',(-1.8575,5.,16.));
#4070=DIRECTION('',(0.,-1.,0.));
#4080=DIRECTION('',(1.,0.,0.));
#4090=AXIS2_PLACEMENT_3D('',#4060,#4070,#4080);
#4100=PLANE('',#4090);
#4110=ORIENTED_EDGE('',*,*,#3870,.F.);
#4120=EDGE_CURVE('',#3770,#3860,#3840,.T.);
#4130=ORIENTED_EDGE('',*,*,#4120,.F.);
#4140=EDGE_LOOP('',(#4130,#4110));
#4150=FACE_OUTER_BOUND('',#4140,.T.);
#4160=CARTESIAN_POINT('',(-3.5,5.,16.));
#4170=DIRECTION('',(0.,1.,0.));
#4180=DIRECTION('',(1.,0.,0.));
#4190=AXIS2_PLACEMENT_3D('',#4160,#4170,#4180);
#4200=CIRCLE('',#4190,1.635);
#4210=CARTESIAN_POINT('',(-1.865,5.,16.));
#4220=VERTEX_POINT('',#4210);
#4230=CARTESIAN_POINT('',(-5.135,5.,16.));
#4240=VERTEX_POINT('',#4230);
#4250=EDGE_CURVE('',#4220,#4240,#4200,.T.);
#4260=ORIENTED_EDGE('',*,*,#4250,.T.);
#4270=EDGE_CURVE('',#4240,#4220,#4200,.T.);
#4280=ORIENTED_EDGE('',*,*,#4270,.T.);
#4290=EDGE_LOOP('',(#4280,#4260));
#4300=FACE_BOUND('',#4290,.T.);
#4310=ADVANCED_FACE('',(#4150,#4300),#4100,.T.);
#4320=CARTESIAN_POINT('',(-3.5,5.5,16.));
#4330=DIRECTION('',(0.,-1.,0.));
#4340=DIRECTION('',(1.,0.,0.));
#4350=AXIS2_PLACEMENT_3D('',#4320,#4330,#4340);
#4360=CYLINDRICAL_SURFACE('',#4350,1.635);
#4370=CARTESIAN_POINT('',(-1.865,5.5,16.));
#4380=DIRECTION('',(0.,-1.,0.));
#4390=VECTOR('',#4380,1.);
#4400=LINE('',#4370,#4390);
#4410=CARTESIAN_POINT('',(-1.865,6.,16.));
#4420=VERTEX_POINT('',#4410);
#4430=EDGE_CURVE('',#4420,#4220,#4400,.T.);
#4440=ORIENTED_EDGE('',*,*,#4430,.T.);
#4450=CARTESIAN_POINT('',(-3.5,6.,16.));
#4460=DIRECTION('',(0.,1.,0.));
#4470=DIRECTION('',(1.,0.,0.));
#4480=AXIS2_PLACEMENT_3D('',#4450,#4460,#4470);
#4490=CIRCLE('',#4480,1.635);
#4500=CARTESIAN_POINT('',(-5.135,6.,16.));
#4510=VERTEX_POINT('',#4500);
#4520=EDGE_CURVE('',#4510,#4420,#4490,.T.);
#4530=ORIENTED_EDGE('',*,*,#4520,.T.);
#4540=CARTESIAN_POINT('',(-5.135,5.5,16.));
#4550=DIRECTION('',(0.,-1.,0.));
#4560=VECTOR('',#4550,1.);
#4570=LINE('',#4540,#4560);
#4580=EDGE_CURVE('',#4510,#4240,#4570,.T.);
#4590=ORIENTED_EDGE('',*,*,#4580,.F.);
#4600=ORIENTED_EDGE('',*,*,#4270,.F.);
#4610=EDGE_LOOP('',(#4600,#4590,#4530,#4440));
#4620=FACE_OUTER_BOUND('',#4610,.T.);
#4630=ADVANCED_FACE('',(#4620),#4360,.F.);
#4640=CARTESIAN_POINT('',(-3.5,6.,16.));
#4650=DIRECTION('',(0.,-1.,0.));
#4660=DIRECTION('',(1.,0.,0.));
#4670=AXIS2_PLACEMENT_3D('',#4640,#4650,#4660);
#4680=CONICAL_SURFACE('',#4670,1.635,1.02974425867665);
#4690=CARTESIAN_POINT('',(-1.865,6.,16.));
#4700=DIRECTION('',(0.857167300702112,-0.515038074910054,0.));
#4710=VECTOR('',#4700,1.90744560444707);
#4720=LINE('',#4690,#4710);
#4730=CARTESIAN_POINT('',(-3.5,6.98240711211006,16.));
#4740=VERTEX_POINT('',#4730);
#4750=EDGE_CURVE('',#4740,#4420,#4720,.T.);
#4760=ORIENTED_EDGE('',*,*,#4750,.T.);
#4770=CARTESIAN_POINT('',(-5.135,6.,16.));
#4780=DIRECTION('',(-0.857167300702112,-0.515038074910054,0.));
#4790=VECTOR('',#4780,1.90744560444707);
#4800=LINE('',#4770,#4790);
#4810=EDGE_CURVE('',#4740,#4510,#4800,.T.);
#4820=ORIENTED_EDGE('',*,*,#4810,.F.);
#4830=ORIENTED_EDGE('',*,*,#4520,.F.);
#4840=EDGE_LOOP('',(#4830,#4820,#4760));
#4850=FACE_OUTER_BOUND('',#4840,.T.);
#4860=ADVANCED_FACE('',(#4850),#4680,.F.);
#4870=CARTESIAN_POINT('',(-3.5,5.5,-16.));
#4880=DIRECTION('',(0.,-1.,0.));
#4890=DIRECTION('',(1.,0.,0.));
#4900=AXIS2_PLACEMENT_3D('',#4870,#4880,#4890);
#4910=CYLINDRICAL_SURFACE('',#4900,1.635);
#4920=ORIENTED_EDGE('',*,*,#3050,.F.);
#4930=ORIENTED_EDGE('',*,*,#3380,.T.);
#4940=EDGE_CURVE('',#3220,#3310,#3290,.T.);
#4950=ORIENTED_EDGE('',*,*,#4940,.T.);
#4960=ORIENTED_EDGE('',*,*,#3230,.F.);
#4970=EDGE_LOOP('',(#4960,#4950,#4930,#4920));
#4980=FACE_OUTER_BOUND('',#4970,.T.);
#4990=ADVANCED_FACE('',(#4980),#4910,.F.);
#5000=CARTESIAN_POINT('',(-3.5,2.5,16.));
#5010=DIRECTION('',(0.,-1.,0.));
#5020=DIRECTION('',(1.,0.,0.));
#5030=AXIS2_PLACEMENT_3D('',#5000,#5010,#5020);
#5040=CYLINDRICAL_SURFACE('',#5030,1.65);
#5050=ORIENTED_EDGE('',*,*,#3780,.F.);
#5060=ORIENTED_EDGE('',*,*,#1990,.T.);
#5070=ORIENTED_EDGE('',*,*,#3930,.T.);
#5080=ORIENTED_EDGE('',*,*,#4120,.T.);
#5090=EDGE_LOOP('',(#5080,#5070,#5060,#5050));
#5100=FACE_OUTER_BOUND('',#5090,.T.);
#5110=ADVANCED_FACE('',(#5100),#5040,.F.);
#5120=COLOUR_RGB('',1.,0.,0.);
#5130=FILL_AREA_STYLE_COLOUR('',#5120);
#5140=FILL_AREA_STYLE('',(#5130));
#5150=SURFACE_STYLE_FILL_AREA(#5140);
#5160=SURFACE_SIDE_STYLE('',(#5150));
#5170=SURFACE_STYLE_USAGE(.BOTH.,#5160);
#5180=PRESENTATION_STYLE_ASSIGNMENT((#5170));
#5190=CARTESIAN_POINT('',(-3.5,2.5,-16.));
#5200=DIRECTION('',(0.,-1.,0.));
#5210=DIRECTION('',(1.,0.,0.));
#5220=AXIS2_PLACEMENT_3D('',#5190,#5200,#5210);
#5230=CYLINDRICAL_SURFACE('',#5220,1.65);
#5240=ORIENTED_EDGE('',*,*,#2580,.F.);
#5250=ORIENTED_EDGE('',*,*,#1840,.T.);
#5260=ORIENTED_EDGE('',*,*,#2730,.T.);
#5270=ORIENTED_EDGE('',*,*,#2920,.T.);
#5280=EDGE_LOOP('',(#5270,#5260,#5250,#5240));
#5290=FACE_OUTER_BOUND('',#5280,.T.);
#5300=ADVANCED_FACE('',(#5290),#5230,.F.);
#5310=COLOUR_RGB('',1.,0.,0.);
#5320=FILL_AREA_STYLE_COLOUR('',#5310);
#5330=FILL_AREA_STYLE('',(#5320));
#5340=SURFACE_STYLE_FILL_AREA(#5330);
#5350=SURFACE_SIDE_STYLE('',(#5340));
#5360=SURFACE_STYLE_USAGE(.BOTH.,#5350);
#5370=PRESENTATION_STYLE_ASSIGNMENT((#5360));
#5380=CARTESIAN_POINT('',(-3.5,6.,16.));
#5390=DIRECTION('',(0.,-1.,0.));
#5400=DIRECTION('',(1.,0.,0.));
#5410=AXIS2_PLACEMENT_3D('',#5380,#5390,#5400);
#5420=CONICAL_SURFACE('',#5410,1.635,1.02974425867665);
#5430=ORIENTED_EDGE('',*,*,#4750,.F.);
#5440=EDGE_CURVE('',#4420,#4510,#4490,.T.);
#5450=ORIENTED_EDGE('',*,*,#5440,.F.);
#5460=ORIENTED_EDGE('',*,*,#4810,.T.);
#5470=EDGE_LOOP('',(#5460,#5450,#5430));
#5480=FACE_OUTER_BOUND('',#5470,.T.);
#5490=ADVANCED_FACE('',(#5480),#5420,.F.);
#5500=CARTESIAN_POINT('',(-3.5,5.5,16.));
#5510=DIRECTION('',(0.,-1.,0.));
#5520=DIRECTION('',(1.,0.,0.));
#5530=AXIS2_PLACEMENT_3D('',#5500,#5510,#5520);
#5540=CYLINDRICAL_SURFACE('',#5530,1.635);
#5550=ORIENTED_EDGE('',*,*,#4250,.F.);
#5560=ORIENTED_EDGE('',*,*,#4580,.T.);
#5570=ORIENTED_EDGE('',*,*,#5440,.T.);
#5580=ORIENTED_EDGE('',*,*,#4430,.F.);
#5590=EDGE_LOOP('',(#5580,#5570,#5560,#5550));
#5600=FACE_OUTER_BOUND('',#5590,.T.);
#5610=ADVANCED_FACE('',(#5600),#5540,.F.);
#5620=CARTESIAN_POINT('',(-3.5,6.,-16.));
#5630=DIRECTION('',(0.,-1.,0.));
#5640=DIRECTION('',(1.,0.,0.));
#5650=AXIS2_PLACEMENT_3D('',#5620,#5630,#5640);
#5660=CONICAL_SURFACE('',#5650,1.635,1.02974425867665);
#5670=ORIENTED_EDGE('',*,*,#3550,.F.);
#5680=ORIENTED_EDGE('',*,*,#4940,.F.);
#5690=ORIENTED_EDGE('',*,*,#3610,.T.);
#5700=EDGE_LOOP('',(#5690,#5680,#5670));
#5710=FACE_OUTER_BOUND('',#5700,.T.);
#5720=ADVANCED_FACE('',(#5710),#5660,.F.);
#5730=CLOSED_SHELL('',(#1530,#2050,#2170,#2340,#2460,#2780,#3110,#3430,
#3660,#3980,#4310,#4630,#4860,#4990,#5110,#5300,#5490,#5610,#5720,#570,
#880,#1130));
#5740=MANIFOLD_SOLID_BREP('',#5730);
#5750=CARTESIAN_POINT('',(0.,0.,0.));
#5760=DIRECTION('',(0.,0.,1.));
#5770=DIRECTION('',(1.,0.,0.));
#5780=AXIS2_PLACEMENT_3D('',#5750,#5760,#5770);
#5790=APPLICATION_CONTEXT(' ');
#5800=APPLICATION_PROTOCOL_DEFINITION(' ','automotive_design',1998,#5790
);
#5810=PRODUCT_CONTEXT('',#5790,'mechanical');
#5820=PRODUCT_DEFINITION_CONTEXT('part definition',#5790,'design');
#5830=PRODUCT('1540-52','1540-52','',(#5810));
#5840=PRODUCT_RELATED_PRODUCT_CATEGORY('part',' ',(#5830));
#5850=PRODUCT_DEFINITION_FORMATION_WITH_SPECIFIED_SOURCE('','',#5830,
.BOUGHT.);
#5860=PRODUCT_DEFINITION('',' ',#5850,#5820);
#5870=PRODUCT_DEFINITION_SHAPE('','',#5860);
#5880=DIMENSIONAL_EXPONENTS(1.,0.,0.,0.,0.,0.,0.);
#5890=DIMENSIONAL_EXPONENTS(0.,0.,0.,0.,0.,0.,0.);
#5900=DIMENSIONAL_EXPONENTS(0.,0.,0.,0.,0.,0.,0.);
#5910=(LENGTH_UNIT() NAMED_UNIT(*) SI_UNIT(.MILLI.,.METRE.));
#5920=(NAMED_UNIT(*) PLANE_ANGLE_UNIT() SI_UNIT($,.RADIAN.));
#5930=(NAMED_UNIT(*) SI_UNIT($,.STERADIAN.) SOLID_ANGLE_UNIT());
#5940=(GEOMETRIC_REPRESENTATION_CONTEXT(3) 
GLOBAL_UNCERTAINTY_ASSIGNED_CONTEXT((#5950)) 
GLOBAL_UNIT_ASSIGNED_CONTEXT((#5910,#5920,#5930)) REPRESENTATION_CONTEXT
('',''));
#5950=UNCERTAINTY_MEASURE_WITH_UNIT(LENGTH_MEASURE(1.E-6),#5910,
'distance_accuracy_value','maximum gap value');
#5960=ADVANCED_BREP_SHAPE_REPRESENTATION('',(#5780,#5740),#5940);
#5970=SHAPE_DEFINITION_REPRESENTATION(#5870,#5960);
#5980=COLOUR_RGB('',0.600000023841858,0.600000023841858,
0.600000023841858);
#5990=FILL_AREA_STYLE_COLOUR('',#5980);
#6000=FILL_AREA_STYLE('',(#5990));
#6010=SURFACE_STYLE_FILL_AREA(#6000);
#6020=SURFACE_SIDE_STYLE('',(#6010));
#6030=SURFACE_STYLE_USAGE(.BOTH.,#6020);
#6040=PRESENTATION_STYLE_ASSIGNMENT((#6030));
#6050=STYLED_ITEM('',(#6040),#5740);
#6060=OVER_RIDING_STYLED_ITEM('',(#2850),#2780,#6050);
#6070=OVER_RIDING_STYLED_ITEM('',(#4050),#3980,#6050);
#6080=OVER_RIDING_STYLED_ITEM('',(#5180),#5110,#6050);
#6090=OVER_RIDING_STYLED_ITEM('',(#5370),#5300,#6050);
#6100=DRAUGHTING_MODEL('',(#6050,#6060,#6070,#6080,#6090),#5940);
ENDSEC;
END-ISO-10303-21;
