ISO-10303-21;
HEADER;
FILE_DESCRIPTION(('Creo Elements/Direct Modeling STEP Export'),'2;1');
FILE_NAME('1528-138.stp','2019-01-15T 9:08:28',(''),(''),
'Creo Elements/Direct Modeling STEP processor for AP214 (Solid Model)',
'Creo Elements/Direct Modeling 20.0  12-Nov-2016 (C) Parametric Technolo
gy GmbH','');
FILE_SCHEMA(('AUTOMOTIVE_DESIGN { 1 0 10303 214 1 1 1 1 }'));
ENDSEC;
DATA;
#10=CARTESIAN_POINT('',(0.,0.,0.));
#20=DIRECTION('',(0.,0.,1.));
#30=DIRECTION('',(1.,0.,0.));
#40=AXIS2_PLACEMENT_3D('',#10,#20,#30);
#50=PLANE('',#40);
#60=CARTESIAN_POINT('',(10.,24.,0.));
#70=DIRECTION('',(0.,-1.,0.));
#80=VECTOR('',#70,1.);
#90=LINE('',#60,#80);
#100=CARTESIAN_POINT('',(10.,24.,0.));
#110=VERTEX_POINT('',#100);
#120=CARTESIAN_POINT('',(10.,0.,0.));
#130=VERTEX_POINT('',#120);
#140=EDGE_CURVE('',#110,#130,#90,.T.);
#150=ORIENTED_EDGE('',*,*,#140,.T.);
#160=CARTESIAN_POINT('',(128.,24.,0.));
#170=DIRECTION('',(-1.,0.,0.));
#180=VECTOR('',#170,1.);
#190=LINE('',#160,#180);
#200=CARTESIAN_POINT('',(128.,24.,-0.));
#210=VERTEX_POINT('',#200);
#220=EDGE_CURVE('',#210,#110,#190,.T.);
#230=ORIENTED_EDGE('',*,*,#220,.T.);
#240=CARTESIAN_POINT('',(128.,0.,0.));
#250=DIRECTION('',(0.,1.,0.));
#260=VECTOR('',#250,1.);
#270=LINE('',#240,#260);
#280=CARTESIAN_POINT('',(128.,0.,0.));
#290=VERTEX_POINT('',#280);
#300=EDGE_CURVE('',#290,#210,#270,.T.);
#310=ORIENTED_EDGE('',*,*,#300,.T.);
#320=CARTESIAN_POINT('',(0.,-0.,-0.));
#330=DIRECTION('',(-1.,0.,0.));
#340=VECTOR('',#330,1.);
#350=LINE('',#320,#340);
#360=CARTESIAN_POINT('',(138.,0.,0.));
#370=VERTEX_POINT('',#360);
#380=EDGE_CURVE('',#370,#290,#350,.T.);
#390=ORIENTED_EDGE('',*,*,#380,.T.);
#400=CARTESIAN_POINT('',(138.,30.,0.));
#410=DIRECTION('',(0.,-1.,0.));
#420=VECTOR('',#410,1.);
#430=LINE('',#400,#420);
#440=CARTESIAN_POINT('',(138.,29.,0.));
#450=VERTEX_POINT('',#440);
#460=EDGE_CURVE('',#450,#370,#430,.T.);
#470=ORIENTED_EDGE('',*,*,#460,.T.);
#480=CARTESIAN_POINT('',(137.,29.,0.));
#490=DIRECTION('',(0.,0.,1.));
#500=DIRECTION('',(1.,0.,0.));
#510=AXIS2_PLACEMENT_3D('',#480,#490,#500);
#520=CIRCLE('',#510,1.);
#530=CARTESIAN_POINT('',(137.,30.,-0.));
#540=VERTEX_POINT('',#530);
#550=EDGE_CURVE('',#450,#540,#520,.T.);
#560=ORIENTED_EDGE('',*,*,#550,.F.);
#570=CARTESIAN_POINT('',(0.,30.,0.));
#580=DIRECTION('',(1.,0.,0.));
#590=VECTOR('',#580,1.);
#600=LINE('',#570,#590);
#610=CARTESIAN_POINT('',(1.,30.,-0.));
#620=VERTEX_POINT('',#610);
#630=EDGE_CURVE('',#620,#540,#600,.T.);
#640=ORIENTED_EDGE('',*,*,#630,.T.);
#650=CARTESIAN_POINT('',(1.,29.,0.));
#660=DIRECTION('',(0.,0.,-1.));
#670=DIRECTION('',(-1.,0.,0.));
#680=AXIS2_PLACEMENT_3D('',#650,#660,#670);
#690=CIRCLE('',#680,1.);
#700=CARTESIAN_POINT('',(0.,29.,0.));
#710=VERTEX_POINT('',#700);
#720=EDGE_CURVE('',#710,#620,#690,.T.);
#730=ORIENTED_EDGE('',*,*,#720,.T.);
#740=CARTESIAN_POINT('',(0.,0.,0.));
#750=DIRECTION('',(0.,1.,0.));
#760=VECTOR('',#750,1.);
#770=LINE('',#740,#760);
#780=CARTESIAN_POINT('',(0.,0.,0.));
#790=VERTEX_POINT('',#780);
#800=EDGE_CURVE('',#790,#710,#770,.T.);
#810=ORIENTED_EDGE('',*,*,#800,.T.);
#820=CARTESIAN_POINT('',(0.,-0.,-0.));
#830=DIRECTION('',(-1.,0.,0.));
#840=VECTOR('',#830,1.);
#850=LINE('',#820,#840);
#860=EDGE_CURVE('',#130,#790,#850,.T.);
#870=ORIENTED_EDGE('',*,*,#860,.T.);
#880=EDGE_LOOP('',(#870,#810,#730,#640,#560,#470,#390,#310,#230,#150));
#890=FACE_OUTER_BOUND('',#880,.T.);
#900=ADVANCED_FACE('',(#890),#50,.F.);
#910=CARTESIAN_POINT('',(0.,0.,20.));
#920=DIRECTION('',(0.,0.,1.));
#930=DIRECTION('',(1.,0.,0.));
#940=AXIS2_PLACEMENT_3D('',#910,#920,#930);
#950=PLANE('',#940);
#960=CARTESIAN_POINT('',(0.,0.,20.));
#970=DIRECTION('',(0.,1.,0.));
#980=VECTOR('',#970,1.);
#990=LINE('',#960,#980);
#1000=CARTESIAN_POINT('',(0.,0.,20.));
#1010=VERTEX_POINT('',#1000);
#1020=CARTESIAN_POINT('',(0.,29.,20.));
#1030=VERTEX_POINT('',#1020);
#1040=EDGE_CURVE('',#1010,#1030,#990,.T.);
#1050=ORIENTED_EDGE('',*,*,#1040,.F.);
#1060=CARTESIAN_POINT('',(1.,29.,20.));
#1070=DIRECTION('',(0.,0.,-1.));
#1080=DIRECTION('',(-1.,0.,0.));
#1090=AXIS2_PLACEMENT_3D('',#1060,#1070,#1080);
#1100=CIRCLE('',#1090,1.);
#1110=CARTESIAN_POINT('',(1.,30.,20.));
#1120=VERTEX_POINT('',#1110);
#1130=EDGE_CURVE('',#1030,#1120,#1100,.T.);
#1140=ORIENTED_EDGE('',*,*,#1130,.F.);
#1150=CARTESIAN_POINT('',(0.,30.,20.));
#1160=DIRECTION('',(1.,0.,0.));
#1170=VECTOR('',#1160,1.);
#1180=LINE('',#1150,#1170);
#1190=CARTESIAN_POINT('',(137.,30.,20.));
#1200=VERTEX_POINT('',#1190);
#1210=EDGE_CURVE('',#1120,#1200,#1180,.T.);
#1220=ORIENTED_EDGE('',*,*,#1210,.F.);
#1230=CARTESIAN_POINT('',(137.,29.,20.));
#1240=DIRECTION('',(0.,0.,1.));
#1250=DIRECTION('',(1.,0.,0.));
#1260=AXIS2_PLACEMENT_3D('',#1230,#1240,#1250);
#1270=CIRCLE('',#1260,1.);
#1280=CARTESIAN_POINT('',(138.,29.,20.));
#1290=VERTEX_POINT('',#1280);
#1300=EDGE_CURVE('',#1290,#1200,#1270,.T.);
#1310=ORIENTED_EDGE('',*,*,#1300,.T.);
#1320=CARTESIAN_POINT('',(138.,30.,20.));
#1330=DIRECTION('',(0.,-1.,0.));
#1340=VECTOR('',#1330,1.);
#1350=LINE('',#1320,#1340);
#1360=CARTESIAN_POINT('',(138.,0.,20.));
#1370=VERTEX_POINT('',#1360);
#1380=EDGE_CURVE('',#1290,#1370,#1350,.T.);
#1390=ORIENTED_EDGE('',*,*,#1380,.F.);
#1400=CARTESIAN_POINT('',(0.,-0.,20.));
#1410=DIRECTION('',(-1.,0.,0.));
#1420=VECTOR('',#1410,1.);
#1430=LINE('',#1400,#1420);
#1440=CARTESIAN_POINT('',(128.,0.,20.));
#1450=VERTEX_POINT('',#1440);
#1460=EDGE_CURVE('',#1370,#1450,#1430,.T.);
#1470=ORIENTED_EDGE('',*,*,#1460,.F.);
#1480=CARTESIAN_POINT('',(128.,0.,20.));
#1490=DIRECTION('',(0.,1.,0.));
#1500=VECTOR('',#1490,1.);
#1510=LINE('',#1480,#1500);
#1520=CARTESIAN_POINT('',(128.,24.,20.));
#1530=VERTEX_POINT('',#1520);
#1540=EDGE_CURVE('',#1450,#1530,#1510,.T.);
#1550=ORIENTED_EDGE('',*,*,#1540,.F.);
#1560=CARTESIAN_POINT('',(128.,24.,20.));
#1570=DIRECTION('',(-1.,0.,0.));
#1580=VECTOR('',#1570,1.);
#1590=LINE('',#1560,#1580);
#1600=CARTESIAN_POINT('',(10.,24.,20.));
#1610=VERTEX_POINT('',#1600);
#1620=EDGE_CURVE('',#1530,#1610,#1590,.T.);
#1630=ORIENTED_EDGE('',*,*,#1620,.F.);
#1640=CARTESIAN_POINT('',(10.,24.,20.));
#1650=DIRECTION('',(0.,-1.,0.));
#1660=VECTOR('',#1650,1.);
#1670=LINE('',#1640,#1660);
#1680=CARTESIAN_POINT('',(10.,0.,20.));
#1690=VERTEX_POINT('',#1680);
#1700=EDGE_CURVE('',#1610,#1690,#1670,.T.);
#1710=ORIENTED_EDGE('',*,*,#1700,.F.);
#1720=CARTESIAN_POINT('',(0.,-0.,20.));
#1730=DIRECTION('',(-1.,0.,0.));
#1740=VECTOR('',#1730,1.);
#1750=LINE('',#1720,#1740);
#1760=EDGE_CURVE('',#1690,#1010,#1750,.T.);
#1770=ORIENTED_EDGE('',*,*,#1760,.F.);
#1780=EDGE_LOOP('',(#1770,#1710,#1630,#1550,#1470,#1390,#1310,#1220,
#1140,#1050));
#1790=FACE_OUTER_BOUND('',#1780,.T.);
#1800=ADVANCED_FACE('',(#1790),#950,.T.);
#1810=CARTESIAN_POINT('',(0.,0.,0.));
#1820=DIRECTION('',(-1.,0.,0.));
#1830=DIRECTION('',(0.,1.,0.));
#1840=AXIS2_PLACEMENT_3D('',#1810,#1820,#1830);
#1850=PLANE('',#1840);
#1860=ORIENTED_EDGE('',*,*,#1040,.T.);
#1870=CARTESIAN_POINT('',(0.,0.,0.));
#1880=DIRECTION('',(0.,0.,1.));
#1890=VECTOR('',#1880,1.);
#1900=LINE('',#1870,#1890);
#1910=EDGE_CURVE('',#790,#1010,#1900,.T.);
#1920=ORIENTED_EDGE('',*,*,#1910,.T.);
#1930=ORIENTED_EDGE('',*,*,#800,.F.);
#1940=CARTESIAN_POINT('',(0.,29.,0.));
#1950=DIRECTION('',(0.,0.,1.));
#1960=VECTOR('',#1950,1.);
#1970=LINE('',#1940,#1960);
#1980=EDGE_CURVE('',#710,#1030,#1970,.T.);
#1990=ORIENTED_EDGE('',*,*,#1980,.F.);
#2000=EDGE_LOOP('',(#1990,#1930,#1920,#1860));
#2010=FACE_OUTER_BOUND('',#2000,.T.);
#2020=ADVANCED_FACE('',(#2010),#1850,.T.);
#2030=CARTESIAN_POINT('',(10.,0.,0.));
#2040=DIRECTION('',(-0.,-1.,-0.));
#2050=DIRECTION('',(-1.,0.,0.));
#2060=AXIS2_PLACEMENT_3D('',#2030,#2040,#2050);
#2070=PLANE('',#2060);
#2080=CARTESIAN_POINT('',(5.,0.,10.));
#2090=DIRECTION('',(0.,-1.,0.));
#2100=DIRECTION('',(1.,0.,0.));
#2110=AXIS2_PLACEMENT_3D('',#2080,#2090,#2100);
#2120=CIRCLE('',#2110,1.65);
#2130=CARTESIAN_POINT('',(5.,0.,8.35));
#2140=VERTEX_POINT('',#2130);
#2150=CARTESIAN_POINT('',(6.65,0.,10.));
#2160=VERTEX_POINT('',#2150);
#2170=EDGE_CURVE('',#2140,#2160,#2120,.T.);
#2180=ORIENTED_EDGE('',*,*,#2170,.F.);
#2190=CARTESIAN_POINT('',(3.35,0.,10.));
#2200=VERTEX_POINT('',#2190);
#2210=EDGE_CURVE('',#2160,#2200,#2120,.T.);
#2220=ORIENTED_EDGE('',*,*,#2210,.F.);
#2230=EDGE_CURVE('',#2200,#2140,#2120,.T.);
#2240=ORIENTED_EDGE('',*,*,#2230,.F.);
#2250=EDGE_LOOP('',(#2240,#2220,#2180));
#2260=FACE_BOUND('',#2250,.T.);
#2270=CARTESIAN_POINT('',(10.,0.,0.));
#2280=DIRECTION('',(0.,0.,1.));
#2290=VECTOR('',#2280,1.);
#2300=LINE('',#2270,#2290);
#2310=EDGE_CURVE('',#130,#1690,#2300,.T.);
#2320=ORIENTED_EDGE('',*,*,#2310,.T.);
#2330=ORIENTED_EDGE('',*,*,#860,.F.);
#2340=ORIENTED_EDGE('',*,*,#1910,.F.);
#2350=ORIENTED_EDGE('',*,*,#1760,.T.);
#2360=EDGE_LOOP('',(#2350,#2340,#2330,#2320));
#2370=FACE_OUTER_BOUND('',#2360,.T.);
#2380=ADVANCED_FACE('',(#2260,#2370),#2070,.T.);
#2390=CARTESIAN_POINT('',(10.,24.,0.));
#2400=DIRECTION('',(1.,0.,0.));
#2410=DIRECTION('',(0.,-1.,0.));
#2420=AXIS2_PLACEMENT_3D('',#2390,#2400,#2410);
#2430=PLANE('',#2420);
#2440=ORIENTED_EDGE('',*,*,#2310,.F.);
#2450=ORIENTED_EDGE('',*,*,#1700,.T.);
#2460=CARTESIAN_POINT('',(10.,24.,0.));
#2470=DIRECTION('',(0.,0.,1.));
#2480=VECTOR('',#2470,1.);
#2490=LINE('',#2460,#2480);
#2500=EDGE_CURVE('',#110,#1610,#2490,.T.);
#2510=ORIENTED_EDGE('',*,*,#2500,.T.);
#2520=ORIENTED_EDGE('',*,*,#140,.F.);
#2530=EDGE_LOOP('',(#2520,#2510,#2450,#2440));
#2540=FACE_OUTER_BOUND('',#2530,.T.);
#2550=ADVANCED_FACE('',(#2540),#2430,.T.);
#2560=CARTESIAN_POINT('',(128.,24.,0.));
#2570=DIRECTION('',(-0.,-1.,-0.));
#2580=DIRECTION('',(-1.,0.,0.));
#2590=AXIS2_PLACEMENT_3D('',#2560,#2570,#2580);
#2600=PLANE('',#2590);
#2610=ORIENTED_EDGE('',*,*,#2500,.F.);
#2620=ORIENTED_EDGE('',*,*,#1620,.T.);
#2630=CARTESIAN_POINT('',(128.,24.,0.));
#2640=DIRECTION('',(0.,0.,1.));
#2650=VECTOR('',#2640,1.);
#2660=LINE('',#2630,#2650);
#2670=EDGE_CURVE('',#210,#1530,#2660,.T.);
#2680=ORIENTED_EDGE('',*,*,#2670,.T.);
#2690=ORIENTED_EDGE('',*,*,#220,.F.);
#2700=EDGE_LOOP('',(#2690,#2680,#2620,#2610));
#2710=FACE_OUTER_BOUND('',#2700,.T.);
#2720=ADVANCED_FACE('',(#2710),#2600,.T.);
#2730=CARTESIAN_POINT('',(128.,0.,0.));
#2740=DIRECTION('',(-1.,0.,0.));
#2750=DIRECTION('',(0.,1.,0.));
#2760=AXIS2_PLACEMENT_3D('',#2730,#2740,#2750);
#2770=PLANE('',#2760);
#2780=ORIENTED_EDGE('',*,*,#2670,.F.);
#2790=ORIENTED_EDGE('',*,*,#1540,.T.);
#2800=CARTESIAN_POINT('',(128.,0.,0.));
#2810=DIRECTION('',(0.,0.,1.));
#2820=VECTOR('',#2810,1.);
#2830=LINE('',#2800,#2820);
#2840=EDGE_CURVE('',#290,#1450,#2830,.T.);
#2850=ORIENTED_EDGE('',*,*,#2840,.T.);
#2860=ORIENTED_EDGE('',*,*,#300,.F.);
#2870=EDGE_LOOP('',(#2860,#2850,#2790,#2780));
#2880=FACE_OUTER_BOUND('',#2870,.T.);
#2890=ADVANCED_FACE('',(#2880),#2770,.T.);
#2900=CARTESIAN_POINT('',(138.,0.,0.));
#2910=DIRECTION('',(-0.,-1.,-0.));
#2920=DIRECTION('',(-1.,0.,0.));
#2930=AXIS2_PLACEMENT_3D('',#2900,#2910,#2920);
#2940=PLANE('',#2930);
#2950=CARTESIAN_POINT('',(133.,0.,10.));
#2960=DIRECTION('',(0.,-1.,0.));
#2970=DIRECTION('',(1.,0.,0.));
#2980=AXIS2_PLACEMENT_3D('',#2950,#2960,#2970);
#2990=CIRCLE('',#2980,1.65);
#3000=CARTESIAN_POINT('',(133.,0.,11.65));
#3010=VERTEX_POINT('',#3000);
#3020=CARTESIAN_POINT('',(131.35,0.,10.));
#3030=VERTEX_POINT('',#3020);
#3040=EDGE_CURVE('',#3010,#3030,#2990,.T.);
#3050=ORIENTED_EDGE('',*,*,#3040,.F.);
#3060=CARTESIAN_POINT('',(134.65,0.,10.));
#3070=VERTEX_POINT('',#3060);
#3080=EDGE_CURVE('',#3030,#3070,#2990,.T.);
#3090=ORIENTED_EDGE('',*,*,#3080,.F.);
#3100=EDGE_CURVE('',#3070,#3010,#2990,.T.);
#3110=ORIENTED_EDGE('',*,*,#3100,.F.);
#3120=EDGE_LOOP('',(#3110,#3090,#3050));
#3130=FACE_BOUND('',#3120,.T.);
#3140=ORIENTED_EDGE('',*,*,#2840,.F.);
#3150=ORIENTED_EDGE('',*,*,#1460,.T.);
#3160=CARTESIAN_POINT('',(138.,0.,0.));
#3170=DIRECTION('',(0.,0.,1.));
#3180=VECTOR('',#3170,1.);
#3190=LINE('',#3160,#3180);
#3200=EDGE_CURVE('',#370,#1370,#3190,.T.);
#3210=ORIENTED_EDGE('',*,*,#3200,.T.);
#3220=ORIENTED_EDGE('',*,*,#380,.F.);
#3230=EDGE_LOOP('',(#3220,#3210,#3150,#3140));
#3240=FACE_OUTER_BOUND('',#3230,.T.);
#3250=ADVANCED_FACE('',(#3130,#3240),#2940,.T.);
#3260=CARTESIAN_POINT('',(138.,30.,0.));
#3270=DIRECTION('',(1.,0.,0.));
#3280=DIRECTION('',(0.,-1.,0.));
#3290=AXIS2_PLACEMENT_3D('',#3260,#3270,#3280);
#3300=PLANE('',#3290);
#3310=ORIENTED_EDGE('',*,*,#460,.F.);
#3320=ORIENTED_EDGE('',*,*,#3200,.F.);
#3330=ORIENTED_EDGE('',*,*,#1380,.T.);
#3340=CARTESIAN_POINT('',(138.,29.,0.));
#3350=DIRECTION('',(0.,0.,1.));
#3360=VECTOR('',#3350,1.);
#3370=LINE('',#3340,#3360);
#3380=EDGE_CURVE('',#450,#1290,#3370,.T.);
#3390=ORIENTED_EDGE('',*,*,#3380,.T.);
#3400=EDGE_LOOP('',(#3390,#3330,#3320,#3310));
#3410=FACE_OUTER_BOUND('',#3400,.T.);
#3420=ADVANCED_FACE('',(#3410),#3300,.T.);
#3430=CARTESIAN_POINT('',(0.,30.,0.));
#3440=DIRECTION('',(-0.,1.,0.));
#3450=DIRECTION('',(1.,0.,0.));
#3460=AXIS2_PLACEMENT_3D('',#3430,#3440,#3450);
#3470=PLANE('',#3460);
#3480=CARTESIAN_POINT('',(137.,30.,0.));
#3490=DIRECTION('',(0.,0.,1.));
#3500=VECTOR('',#3490,1.);
#3510=LINE('',#3480,#3500);
#3520=EDGE_CURVE('',#540,#1200,#3510,.T.);
#3530=ORIENTED_EDGE('',*,*,#3520,.F.);
#3540=ORIENTED_EDGE('',*,*,#1210,.T.);
#3550=CARTESIAN_POINT('',(1.,30.,0.));
#3560=DIRECTION('',(0.,0.,1.));
#3570=VECTOR('',#3560,1.);
#3580=LINE('',#3550,#3570);
#3590=EDGE_CURVE('',#620,#1120,#3580,.T.);
#3600=ORIENTED_EDGE('',*,*,#3590,.T.);
#3610=ORIENTED_EDGE('',*,*,#630,.F.);
#3620=EDGE_LOOP('',(#3610,#3600,#3540,#3530));
#3630=FACE_OUTER_BOUND('',#3620,.T.);
#3640=ADVANCED_FACE('',(#3630),#3470,.T.);
#3650=CARTESIAN_POINT('',(137.,29.,0.));
#3660=DIRECTION('',(0.,0.,1.));
#3670=DIRECTION('',(1.,0.,0.));
#3680=AXIS2_PLACEMENT_3D('',#3650,#3660,#3670);
#3690=CYLINDRICAL_SURFACE('',#3680,1.);
#3700=ORIENTED_EDGE('',*,*,#1300,.F.);
#3710=ORIENTED_EDGE('',*,*,#3520,.T.);
#3720=ORIENTED_EDGE('',*,*,#550,.T.);
#3730=ORIENTED_EDGE('',*,*,#3380,.F.);
#3740=EDGE_LOOP('',(#3730,#3720,#3710,#3700));
#3750=FACE_OUTER_BOUND('',#3740,.T.);
#3760=ADVANCED_FACE('',(#3750),#3690,.T.);
#3770=CARTESIAN_POINT('',(1.,29.,0.));
#3780=DIRECTION('',(0.,0.,-1.));
#3790=DIRECTION('',(-1.,0.,0.));
#3800=AXIS2_PLACEMENT_3D('',#3770,#3780,#3790);
#3810=CYLINDRICAL_SURFACE('',#3800,1.);
#3820=ORIENTED_EDGE('',*,*,#720,.F.);
#3830=ORIENTED_EDGE('',*,*,#3590,.F.);
#3840=ORIENTED_EDGE('',*,*,#1130,.T.);
#3850=ORIENTED_EDGE('',*,*,#1980,.T.);
#3860=EDGE_LOOP('',(#3850,#3840,#3830,#3820));
#3870=FACE_OUTER_BOUND('',#3860,.T.);
#3880=ADVANCED_FACE('',(#3870),#3810,.T.);
#3890=CARTESIAN_POINT('',(133.,3.5,10.));
#3900=DIRECTION('',(0.,-1.,0.));
#3910=DIRECTION('',(1.,0.,0.));
#3920=AXIS2_PLACEMENT_3D('',#3890,#3900,#3910);
#3930=CYLINDRICAL_SURFACE('',#3920,1.65);
#3940=CARTESIAN_POINT('',(134.65,3.5,10.));
#3950=DIRECTION('',(0.,-1.,0.));
#3960=VECTOR('',#3950,1.);
#3970=LINE('',#3940,#3960);
#3980=CARTESIAN_POINT('',(134.65,7.,10.));
#3990=VERTEX_POINT('',#3980);
#4000=EDGE_CURVE('',#3990,#3070,#3970,.T.);
#4010=ORIENTED_EDGE('',*,*,#4000,.T.);
#4020=CARTESIAN_POINT('',(133.,7.,10.));
#4030=DIRECTION('',(0.,1.,0.));
#4040=DIRECTION('',(1.,0.,0.));
#4050=AXIS2_PLACEMENT_3D('',#4020,#4030,#4040);
#4060=CIRCLE('',#4050,1.65);
#4070=CARTESIAN_POINT('',(131.35,7.,10.));
#4080=VERTEX_POINT('',#4070);
#4090=EDGE_CURVE('',#4080,#3990,#4060,.T.);
#4100=ORIENTED_EDGE('',*,*,#4090,.T.);
#4110=CARTESIAN_POINT('',(131.35,3.5,10.));
#4120=DIRECTION('',(0.,-1.,0.));
#4130=VECTOR('',#4120,1.);
#4140=LINE('',#4110,#4130);
#4150=EDGE_CURVE('',#4080,#3030,#4140,.T.);
#4160=ORIENTED_EDGE('',*,*,#4150,.F.);
#4170=ORIENTED_EDGE('',*,*,#3040,.T.);
#4180=ORIENTED_EDGE('',*,*,#3100,.T.);
#4190=EDGE_LOOP('',(#4180,#4170,#4160,#4100,#4010));
#4200=FACE_OUTER_BOUND('',#4190,.T.);
#4210=ADVANCED_FACE('M4-0.7_270771',(#4200),#3930,.F.);
#4220=COLOUR_RGB('',1.,0.,0.);
#4230=FILL_AREA_STYLE_COLOUR('',#4220);
#4240=FILL_AREA_STYLE('',(#4230));
#4250=SURFACE_STYLE_FILL_AREA(#4240);
#4260=SURFACE_SIDE_STYLE('',(#4250));
#4270=SURFACE_STYLE_USAGE(.BOTH.,#4260);
#4280=PRESENTATION_STYLE_ASSIGNMENT((#4270));
#4290=CARTESIAN_POINT('',(134.6425,7.,10.));
#4300=DIRECTION('',(0.,-1.,0.));
#4310=DIRECTION('',(1.,0.,0.));
#4320=AXIS2_PLACEMENT_3D('',#4290,#4300,#4310);
#4330=PLANE('',#4320);
#4340=CARTESIAN_POINT('',(133.,7.,10.));
#4350=DIRECTION('',(0.,1.,0.));
#4360=DIRECTION('',(1.,0.,0.));
#4370=AXIS2_PLACEMENT_3D('',#4340,#4350,#4360);
#4380=CIRCLE('',#4370,1.635);
#4390=CARTESIAN_POINT('',(134.635,7.,10.));
#4400=VERTEX_POINT('',#4390);
#4410=CARTESIAN_POINT('',(131.365,7.,10.));
#4420=VERTEX_POINT('',#4410);
#4430=EDGE_CURVE('',#4400,#4420,#4380,.T.);
#4440=ORIENTED_EDGE('',*,*,#4430,.T.);
#4450=EDGE_CURVE('',#4420,#4400,#4380,.T.);
#4460=ORIENTED_EDGE('',*,*,#4450,.T.);
#4470=EDGE_LOOP('',(#4460,#4440));
#4480=FACE_BOUND('',#4470,.T.);
#4490=EDGE_CURVE('',#3990,#4080,#4060,.T.);
#4500=ORIENTED_EDGE('',*,*,#4490,.F.);
#4510=ORIENTED_EDGE('',*,*,#4090,.F.);
#4520=EDGE_LOOP('',(#4510,#4500));
#4530=FACE_OUTER_BOUND('',#4520,.T.);
#4540=ADVANCED_FACE('',(#4480,#4530),#4330,.T.);
#4550=CARTESIAN_POINT('',(133.,8.5,10.));
#4560=DIRECTION('',(0.,-1.,0.));
#4570=DIRECTION('',(1.,0.,0.));
#4580=AXIS2_PLACEMENT_3D('',#4550,#4560,#4570);
#4590=CYLINDRICAL_SURFACE('',#4580,1.635);
#4600=CARTESIAN_POINT('',(134.635,8.5,10.));
#4610=DIRECTION('',(0.,-1.,0.));
#4620=VECTOR('',#4610,1.);
#4630=LINE('',#4600,#4620);
#4640=CARTESIAN_POINT('',(134.635,10.,10.));
#4650=VERTEX_POINT('',#4640);
#4660=EDGE_CURVE('',#4650,#4400,#4630,.T.);
#4670=ORIENTED_EDGE('',*,*,#4660,.T.);
#4680=CARTESIAN_POINT('',(133.,10.,10.));
#4690=DIRECTION('',(0.,1.,0.));
#4700=DIRECTION('',(1.,0.,0.));
#4710=AXIS2_PLACEMENT_3D('',#4680,#4690,#4700);
#4720=CIRCLE('',#4710,1.635);
#4730=CARTESIAN_POINT('',(131.365,10.,10.));
#4740=VERTEX_POINT('',#4730);
#4750=EDGE_CURVE('',#4740,#4650,#4720,.T.);
#4760=ORIENTED_EDGE('',*,*,#4750,.T.);
#4770=CARTESIAN_POINT('',(131.365,8.5,10.));
#4780=DIRECTION('',(0.,-1.,0.));
#4790=VECTOR('',#4780,1.);
#4800=LINE('',#4770,#4790);
#4810=EDGE_CURVE('',#4740,#4420,#4800,.T.);
#4820=ORIENTED_EDGE('',*,*,#4810,.F.);
#4830=ORIENTED_EDGE('',*,*,#4450,.F.);
#4840=EDGE_LOOP('',(#4830,#4820,#4760,#4670));
#4850=FACE_OUTER_BOUND('',#4840,.T.);
#4860=ADVANCED_FACE('',(#4850),#4590,.F.);
#4870=CARTESIAN_POINT('',(133.,10.,10.));
#4880=DIRECTION('',(0.,-1.,0.));
#4890=DIRECTION('',(1.,0.,0.));
#4900=AXIS2_PLACEMENT_3D('',#4870,#4880,#4890);
#4910=CONICAL_SURFACE('',#4900,1.635,1.02974425867666);
#4920=CARTESIAN_POINT('',(134.635,10.,10.));
#4930=DIRECTION('',(0.857167300702111,-0.515038074910056,0.));
#4940=VECTOR('',#4930,1.90744560444706);
#4950=LINE('',#4920,#4940);
#4960=CARTESIAN_POINT('',(133.,10.9824071121101,10.));
#4970=VERTEX_POINT('',#4960);
#4980=EDGE_CURVE('',#4970,#4650,#4950,.T.);
#4990=ORIENTED_EDGE('',*,*,#4980,.T.);
#5000=CARTESIAN_POINT('',(131.365,10.,10.));
#5010=DIRECTION('',(-0.857167300702111,-0.515038074910056,0.));
#5020=VECTOR('',#5010,1.90744560444706);
#5030=LINE('',#5000,#5020);
#5040=EDGE_CURVE('',#4970,#4740,#5030,.T.);
#5050=ORIENTED_EDGE('',*,*,#5040,.F.);
#5060=ORIENTED_EDGE('',*,*,#4750,.F.);
#5070=EDGE_LOOP('',(#5060,#5050,#4990));
#5080=FACE_OUTER_BOUND('',#5070,.T.);
#5090=ADVANCED_FACE('',(#5080),#4910,.F.);
#5100=CARTESIAN_POINT('',(5.,3.5,10.));
#5110=DIRECTION('',(0.,-1.,0.));
#5120=DIRECTION('',(1.,0.,0.));
#5130=AXIS2_PLACEMENT_3D('',#5100,#5110,#5120);
#5140=CYLINDRICAL_SURFACE('',#5130,1.65);
#5150=CARTESIAN_POINT('',(3.35,3.5,10.));
#5160=DIRECTION('',(0.,-1.,0.));
#5170=VECTOR('',#5160,1.);
#5180=LINE('',#5150,#5170);
#5190=CARTESIAN_POINT('',(3.35,7.,10.));
#5200=VERTEX_POINT('',#5190);
#5210=EDGE_CURVE('',#5200,#2200,#5180,.T.);
#5220=ORIENTED_EDGE('',*,*,#5210,.T.);
#5230=CARTESIAN_POINT('',(5.,7.,10.));
#5240=DIRECTION('',(0.,1.,0.));
#5250=DIRECTION('',(1.,0.,0.));
#5260=AXIS2_PLACEMENT_3D('',#5230,#5240,#5250);
#5270=CIRCLE('',#5260,1.65);
#5280=CARTESIAN_POINT('',(6.65,7.,10.));
#5290=VERTEX_POINT('',#5280);
#5300=EDGE_CURVE('',#5290,#5200,#5270,.T.);
#5310=ORIENTED_EDGE('',*,*,#5300,.T.);
#5320=CARTESIAN_POINT('',(6.65,3.5,10.));
#5330=DIRECTION('',(0.,-1.,0.));
#5340=VECTOR('',#5330,1.);
#5350=LINE('',#5320,#5340);
#5360=EDGE_CURVE('',#5290,#2160,#5350,.T.);
#5370=ORIENTED_EDGE('',*,*,#5360,.F.);
#5380=ORIENTED_EDGE('',*,*,#2170,.T.);
#5390=ORIENTED_EDGE('',*,*,#2230,.T.);
#5400=EDGE_LOOP('',(#5390,#5380,#5370,#5310,#5220));
#5410=FACE_OUTER_BOUND('',#5400,.T.);
#5420=ADVANCED_FACE('M4-0.7_272068',(#5410),#5140,.F.);
#5430=COLOUR_RGB('',1.,0.,0.);
#5440=FILL_AREA_STYLE_COLOUR('',#5430);
#5450=FILL_AREA_STYLE('',(#5440));
#5460=SURFACE_STYLE_FILL_AREA(#5450);
#5470=SURFACE_SIDE_STYLE('',(#5460));
#5480=SURFACE_STYLE_USAGE(.BOTH.,#5470);
#5490=PRESENTATION_STYLE_ASSIGNMENT((#5480));
#5500=CARTESIAN_POINT('',(6.6425,7.,10.));
#5510=DIRECTION('',(0.,-1.,0.));
#5520=DIRECTION('',(1.,0.,0.));
#5530=AXIS2_PLACEMENT_3D('',#5500,#5510,#5520);
#5540=PLANE('',#5530);
#5550=CARTESIAN_POINT('',(5.,7.,10.));
#5560=DIRECTION('',(0.,1.,0.));
#5570=DIRECTION('',(1.,0.,0.));
#5580=AXIS2_PLACEMENT_3D('',#5550,#5560,#5570);
#5590=CIRCLE('',#5580,1.635);
#5600=CARTESIAN_POINT('',(6.635,7.,10.));
#5610=VERTEX_POINT('',#5600);
#5620=CARTESIAN_POINT('',(3.365,7.,10.));
#5630=VERTEX_POINT('',#5620);
#5640=EDGE_CURVE('',#5610,#5630,#5590,.T.);
#5650=ORIENTED_EDGE('',*,*,#5640,.T.);
#5660=EDGE_CURVE('',#5630,#5610,#5590,.T.);
#5670=ORIENTED_EDGE('',*,*,#5660,.T.);
#5680=EDGE_LOOP('',(#5670,#5650));
#5690=FACE_BOUND('',#5680,.T.);
#5700=ORIENTED_EDGE('',*,*,#5300,.F.);
#5710=EDGE_CURVE('',#5200,#5290,#5270,.T.);
#5720=ORIENTED_EDGE('',*,*,#5710,.F.);
#5730=EDGE_LOOP('',(#5720,#5700));
#5740=FACE_OUTER_BOUND('',#5730,.T.);
#5750=ADVANCED_FACE('',(#5690,#5740),#5540,.T.);
#5760=CARTESIAN_POINT('',(5.,8.5,10.));
#5770=DIRECTION('',(0.,-1.,0.));
#5780=DIRECTION('',(1.,0.,0.));
#5790=AXIS2_PLACEMENT_3D('',#5760,#5770,#5780);
#5800=CYLINDRICAL_SURFACE('',#5790,1.635);
#5810=CARTESIAN_POINT('',(6.635,8.5,10.));
#5820=DIRECTION('',(0.,-1.,0.));
#5830=VECTOR('',#5820,1.);
#5840=LINE('',#5810,#5830);
#5850=CARTESIAN_POINT('',(6.635,10.,10.));
#5860=VERTEX_POINT('',#5850);
#5870=EDGE_CURVE('',#5860,#5610,#5840,.T.);
#5880=ORIENTED_EDGE('',*,*,#5870,.T.);
#5890=CARTESIAN_POINT('',(5.,10.,10.));
#5900=DIRECTION('',(0.,1.,0.));
#5910=DIRECTION('',(1.,0.,0.));
#5920=AXIS2_PLACEMENT_3D('',#5890,#5900,#5910);
#5930=CIRCLE('',#5920,1.635);
#5940=CARTESIAN_POINT('',(3.365,10.,10.));
#5950=VERTEX_POINT('',#5940);
#5960=EDGE_CURVE('',#5950,#5860,#5930,.T.);
#5970=ORIENTED_EDGE('',*,*,#5960,.T.);
#5980=CARTESIAN_POINT('',(3.365,8.5,10.));
#5990=DIRECTION('',(0.,-1.,0.));
#6000=VECTOR('',#5990,1.);
#6010=LINE('',#5980,#6000);
#6020=EDGE_CURVE('',#5950,#5630,#6010,.T.);
#6030=ORIENTED_EDGE('',*,*,#6020,.F.);
#6040=ORIENTED_EDGE('',*,*,#5660,.F.);
#6050=EDGE_LOOP('',(#6040,#6030,#5970,#5880));
#6060=FACE_OUTER_BOUND('',#6050,.T.);
#6070=ADVANCED_FACE('',(#6060),#5800,.F.);
#6080=CARTESIAN_POINT('',(5.,10.,10.));
#6090=DIRECTION('',(0.,-1.,0.));
#6100=DIRECTION('',(1.,0.,0.));
#6110=AXIS2_PLACEMENT_3D('',#6080,#6090,#6100);
#6120=CONICAL_SURFACE('',#6110,1.635,1.02974425867666);
#6130=CARTESIAN_POINT('',(6.635,10.,10.));
#6140=DIRECTION('',(0.857167300702112,-0.515038074910054,0.));
#6150=VECTOR('',#6140,1.90744560444706);
#6160=LINE('',#6130,#6150);
#6170=CARTESIAN_POINT('',(5.,10.9824071121101,10.));
#6180=VERTEX_POINT('',#6170);
#6190=EDGE_CURVE('',#6180,#5860,#6160,.T.);
#6200=ORIENTED_EDGE('',*,*,#6190,.T.);
#6210=CARTESIAN_POINT('',(3.365,10.,10.));
#6220=DIRECTION('',(-0.857167300702112,-0.515038074910054,0.));
#6230=VECTOR('',#6220,1.90744560444706);
#6240=LINE('',#6210,#6230);
#6250=EDGE_CURVE('',#6180,#5950,#6240,.T.);
#6260=ORIENTED_EDGE('',*,*,#6250,.F.);
#6270=ORIENTED_EDGE('',*,*,#5960,.F.);
#6280=EDGE_LOOP('',(#6270,#6260,#6200));
#6290=FACE_OUTER_BOUND('',#6280,.T.);
#6300=ADVANCED_FACE('',(#6290),#6120,.F.);
#6310=CARTESIAN_POINT('',(133.,8.5,10.));
#6320=DIRECTION('',(0.,-1.,0.));
#6330=DIRECTION('',(1.,0.,0.));
#6340=AXIS2_PLACEMENT_3D('',#6310,#6320,#6330);
#6350=CYLINDRICAL_SURFACE('',#6340,1.635);
#6360=ORIENTED_EDGE('',*,*,#4430,.F.);
#6370=ORIENTED_EDGE('',*,*,#4810,.T.);
#6380=EDGE_CURVE('',#4650,#4740,#4720,.T.);
#6390=ORIENTED_EDGE('',*,*,#6380,.T.);
#6400=ORIENTED_EDGE('',*,*,#4660,.F.);
#6410=EDGE_LOOP('',(#6400,#6390,#6370,#6360));
#6420=FACE_OUTER_BOUND('',#6410,.T.);
#6430=ADVANCED_FACE('',(#6420),#6350,.F.);
#6440=CARTESIAN_POINT('',(5.,8.5,10.));
#6450=DIRECTION('',(0.,-1.,0.));
#6460=DIRECTION('',(1.,0.,0.));
#6470=AXIS2_PLACEMENT_3D('',#6440,#6450,#6460);
#6480=CYLINDRICAL_SURFACE('',#6470,1.635);
#6490=ORIENTED_EDGE('',*,*,#5640,.F.);
#6500=ORIENTED_EDGE('',*,*,#6020,.T.);
#6510=EDGE_CURVE('',#5860,#5950,#5930,.T.);
#6520=ORIENTED_EDGE('',*,*,#6510,.T.);
#6530=ORIENTED_EDGE('',*,*,#5870,.F.);
#6540=EDGE_LOOP('',(#6530,#6520,#6500,#6490));
#6550=FACE_OUTER_BOUND('',#6540,.T.);
#6560=ADVANCED_FACE('',(#6550),#6480,.F.);
#6570=CARTESIAN_POINT('',(133.,3.5,10.));
#6580=DIRECTION('',(0.,-1.,0.));
#6590=DIRECTION('',(1.,0.,0.));
#6600=AXIS2_PLACEMENT_3D('',#6570,#6580,#6590);
#6610=CYLINDRICAL_SURFACE('',#6600,1.65);
#6620=ORIENTED_EDGE('',*,*,#3080,.T.);
#6630=ORIENTED_EDGE('',*,*,#4150,.T.);
#6640=ORIENTED_EDGE('',*,*,#4490,.T.);
#6650=ORIENTED_EDGE('',*,*,#4000,.F.);
#6660=EDGE_LOOP('',(#6650,#6640,#6630,#6620));
#6670=FACE_OUTER_BOUND('',#6660,.T.);
#6680=ADVANCED_FACE('',(#6670),#6610,.F.);
#6690=COLOUR_RGB('',1.,0.,0.);
#6700=FILL_AREA_STYLE_COLOUR('',#6690);
#6710=FILL_AREA_STYLE('',(#6700));
#6720=SURFACE_STYLE_FILL_AREA(#6710);
#6730=SURFACE_SIDE_STYLE('',(#6720));
#6740=SURFACE_STYLE_USAGE(.BOTH.,#6730);
#6750=PRESENTATION_STYLE_ASSIGNMENT((#6740));
#6760=CARTESIAN_POINT('',(5.,10.,10.));
#6770=DIRECTION('',(0.,-1.,0.));
#6780=DIRECTION('',(1.,0.,0.));
#6790=AXIS2_PLACEMENT_3D('',#6760,#6770,#6780);
#6800=CONICAL_SURFACE('',#6790,1.635,1.02974425867666);
#6810=ORIENTED_EDGE('',*,*,#6190,.F.);
#6820=ORIENTED_EDGE('',*,*,#6510,.F.);
#6830=ORIENTED_EDGE('',*,*,#6250,.T.);
#6840=EDGE_LOOP('',(#6830,#6820,#6810));
#6850=FACE_OUTER_BOUND('',#6840,.T.);
#6860=ADVANCED_FACE('',(#6850),#6800,.F.);
#6870=CARTESIAN_POINT('',(133.,10.,10.));
#6880=DIRECTION('',(0.,-1.,0.));
#6890=DIRECTION('',(1.,0.,0.));
#6900=AXIS2_PLACEMENT_3D('',#6870,#6880,#6890);
#6910=CONICAL_SURFACE('',#6900,1.635,1.02974425867666);
#6920=ORIENTED_EDGE('',*,*,#4980,.F.);
#6930=ORIENTED_EDGE('',*,*,#6380,.F.);
#6940=ORIENTED_EDGE('',*,*,#5040,.T.);
#6950=EDGE_LOOP('',(#6940,#6930,#6920));
#6960=FACE_OUTER_BOUND('',#6950,.T.);
#6970=ADVANCED_FACE('',(#6960),#6910,.F.);
#6980=CARTESIAN_POINT('',(5.,3.5,10.));
#6990=DIRECTION('',(0.,-1.,0.));
#7000=DIRECTION('',(1.,0.,0.));
#7010=AXIS2_PLACEMENT_3D('',#6980,#6990,#7000);
#7020=CYLINDRICAL_SURFACE('',#7010,1.65);
#7030=ORIENTED_EDGE('',*,*,#5210,.F.);
#7040=ORIENTED_EDGE('',*,*,#2210,.T.);
#7050=ORIENTED_EDGE('',*,*,#5360,.T.);
#7060=ORIENTED_EDGE('',*,*,#5710,.T.);
#7070=EDGE_LOOP('',(#7060,#7050,#7040,#7030));
#7080=FACE_OUTER_BOUND('',#7070,.T.);
#7090=ADVANCED_FACE('',(#7080),#7020,.F.);
#7100=COLOUR_RGB('',1.,0.,0.);
#7110=FILL_AREA_STYLE_COLOUR('',#7100);
#7120=FILL_AREA_STYLE('',(#7110));
#7130=SURFACE_STYLE_FILL_AREA(#7120);
#7140=SURFACE_SIDE_STYLE('',(#7130));
#7150=SURFACE_STYLE_USAGE(.BOTH.,#7140);
#7160=PRESENTATION_STYLE_ASSIGNMENT((#7150));
#7170=CLOSED_SHELL('',(#2020,#2380,#2550,#2720,#2890,#3250,#3420,#3640,
#3760,#3880,#4210,#4540,#4860,#5090,#5420,#5750,#6070,#6300,#6430,#6560,
#6680,#6860,#6970,#7090,#1800,#900));
#7180=MANIFOLD_SOLID_BREP('',#7170);
#7190=CARTESIAN_POINT('',(0.,0.,0.));
#7200=DIRECTION('',(0.,0.,1.));
#7210=DIRECTION('',(1.,0.,0.));
#7220=AXIS2_PLACEMENT_3D('',#7190,#7200,#7210);
#7230=APPLICATION_CONTEXT(' ');
#7240=APPLICATION_PROTOCOL_DEFINITION(' ','automotive_design',1998,#7230
);
#7250=PRODUCT_CONTEXT('',#7230,'mechanical');
#7260=PRODUCT_DEFINITION_CONTEXT('part definition',#7230,'design');
#7270=PRODUCT('1528-138','1528-138','',(#7250));
#7280=PRODUCT_RELATED_PRODUCT_CATEGORY('part',' ',(#7270));
#7290=PRODUCT_DEFINITION_FORMATION_WITH_SPECIFIED_SOURCE('','',#7270,
.BOUGHT.);
#7300=PRODUCT_DEFINITION('',' ',#7290,#7260);
#7310=PRODUCT_DEFINITION_SHAPE('','',#7300);
#7320=DIMENSIONAL_EXPONENTS(1.,0.,0.,0.,0.,0.,0.);
#7330=DIMENSIONAL_EXPONENTS(0.,0.,0.,0.,0.,0.,0.);
#7340=DIMENSIONAL_EXPONENTS(0.,0.,0.,0.,0.,0.,0.);
#7350=(LENGTH_UNIT() NAMED_UNIT(*) SI_UNIT(.MILLI.,.METRE.));
#7360=(NAMED_UNIT(*) PLANE_ANGLE_UNIT() SI_UNIT($,.RADIAN.));
#7370=(NAMED_UNIT(*) SI_UNIT($,.STERADIAN.) SOLID_ANGLE_UNIT());
#7380=(GEOMETRIC_REPRESENTATION_CONTEXT(3) 
GLOBAL_UNCERTAINTY_ASSIGNED_CONTEXT((#7390)) 
GLOBAL_UNIT_ASSIGNED_CONTEXT((#7350,#7360,#7370)) REPRESENTATION_CONTEXT
('',''));
#7390=UNCERTAINTY_MEASURE_WITH_UNIT(LENGTH_MEASURE(1.E-6),#7350,
'distance_accuracy_value','maximum gap value');
#7400=ADVANCED_BREP_SHAPE_REPRESENTATION('',(#7220,#7180),#7380);
#7410=SHAPE_DEFINITION_REPRESENTATION(#7310,#7400);
#7420=COLOUR_RGB('',0.600000023841858,0.600000023841858,
0.600000023841858);
#7430=FILL_AREA_STYLE_COLOUR('',#7420);
#7440=FILL_AREA_STYLE('',(#7430));
#7450=SURFACE_STYLE_FILL_AREA(#7440);
#7460=SURFACE_SIDE_STYLE('',(#7450));
#7470=SURFACE_STYLE_USAGE(.BOTH.,#7460);
#7480=PRESENTATION_STYLE_ASSIGNMENT((#7470));
#7490=STYLED_ITEM('',(#7480),#7180);
#7500=OVER_RIDING_STYLED_ITEM('',(#4280),#4210,#7490);
#7510=OVER_RIDING_STYLED_ITEM('',(#5490),#5420,#7490);
#7520=OVER_RIDING_STYLED_ITEM('',(#6750),#6680,#7490);
#7530=OVER_RIDING_STYLED_ITEM('',(#7160),#7090,#7490);
#7540=DRAUGHTING_MODEL('',(#7490,#7500,#7510,#7520,#7530),#7380);
ENDSEC;
END-ISO-10303-21;
