ISO-10303-21;
HEADER;
FILE_DESCRIPTION(('Creo Elements/Direct Modeling STEP Export'),'2;1');
FILE_NAME('1472-140.stp','2017-09-04T14:31:22',(''),(''),
'Creo Elements/Direct Modeling STEP processor for AP214 (Solid Model)',
'Creo Elements/Direct Modeling 20.0  12-Nov-2016 (C) Parametric Technolo
gy GmbH','');
FILE_SCHEMA(('AUTOMOTIVE_DESIGN { 1 0 10303 214 1 1 1 1 }'));
ENDSEC;
DATA;
#10=CARTESIAN_POINT('',(-70.,38.25,0.));
#20=DIRECTION('',(1.,-0.,-0.));
#30=DIRECTION('',(-0.,-1.,0.));
#40=AXIS2_PLACEMENT_3D('',#10,#20,#30);
#50=PLANE('',#40);
#60=CARTESIAN_POINT('',(-70.,33.,0.));
#70=DIRECTION('',(1.,0.,0.));
#80=DIRECTION('',(0.,-1.,0.));
#90=AXIS2_PLACEMENT_3D('',#60,#70,#80);
#100=CIRCLE('',#90,6.2);
#110=CARTESIAN_POINT('',(-70.,39.2,-7.59281015471359E-16));
#120=VERTEX_POINT('',#110);
#130=CARTESIAN_POINT('',(-70.,26.8,0.));
#140=VERTEX_POINT('',#130);
#150=EDGE_CURVE('',#120,#140,#100,.T.);
#160=ORIENTED_EDGE('',*,*,#150,.F.);
#170=EDGE_CURVE('',#140,#120,#100,.T.);
#180=ORIENTED_EDGE('',*,*,#170,.F.);
#190=EDGE_LOOP('',(#180,#160));
#200=FACE_OUTER_BOUND('',#190,.T.);
#210=ADVANCED_FACE('',(#200),#50,.F.);
#220=CARTESIAN_POINT('',(70.,38.25,0.));
#230=DIRECTION('',(1.,-0.,-0.));
#240=DIRECTION('',(-0.,-1.,0.));
#250=AXIS2_PLACEMENT_3D('',#220,#230,#240);
#260=PLANE('',#250);
#270=CARTESIAN_POINT('',(70.,33.,0.));
#280=DIRECTION('',(1.,0.,0.));
#290=DIRECTION('',(0.,-1.,0.));
#300=AXIS2_PLACEMENT_3D('',#270,#280,#290);
#310=CIRCLE('',#300,6.2);
#320=CARTESIAN_POINT('',(70.,39.2,0.));
#330=VERTEX_POINT('',#320);
#340=CARTESIAN_POINT('',(70.,26.8,-7.59281015471359E-16));
#350=VERTEX_POINT('',#340);
#360=EDGE_CURVE('',#330,#350,#310,.T.);
#370=ORIENTED_EDGE('',*,*,#360,.T.);
#380=EDGE_CURVE('',#350,#330,#310,.T.);
#390=ORIENTED_EDGE('',*,*,#380,.T.);
#400=EDGE_LOOP('',(#390,#370));
#410=FACE_OUTER_BOUND('',#400,.T.);
#420=ADVANCED_FACE('',(#410),#260,.T.);
#430=CARTESIAN_POINT('',(0.,0.,6.75));
#440=DIRECTION('',(0.,0.,1.));
#450=DIRECTION('',(1.,0.,-0.));
#460=AXIS2_PLACEMENT_3D('',#430,#440,#450);
#470=PLANE('',#460);
#480=CARTESIAN_POINT('',(69.,0.,6.75));
#490=DIRECTION('',(0.,1.,0.));
#500=VECTOR('',#490,1.);
#510=LINE('',#480,#500);
#520=CARTESIAN_POINT('',(69.,0.,6.75));
#530=VERTEX_POINT('',#520);
#540=CARTESIAN_POINT('',(69.,31.1459503782261,6.75));
#550=VERTEX_POINT('',#540);
#560=EDGE_CURVE('',#530,#550,#510,.T.);
#570=ORIENTED_EDGE('',*,*,#560,.T.);
#580=CARTESIAN_POINT('',(59.,0.,6.75));
#590=DIRECTION('',(1.,0.,0.));
#600=VECTOR('',#590,1.);
#610=LINE('',#580,#600);
#620=CARTESIAN_POINT('',(59.,0.,6.75));
#630=VERTEX_POINT('',#620);
#640=EDGE_CURVE('',#630,#530,#610,.T.);
#650=ORIENTED_EDGE('',*,*,#640,.T.);
#660=CARTESIAN_POINT('',(59.,36.5,6.75));
#670=DIRECTION('',(0.,-1.,0.));
#680=VECTOR('',#670,1.);
#690=LINE('',#660,#680);
#700=CARTESIAN_POINT('',(59.,31.1459503782261,6.75));
#710=VERTEX_POINT('',#700);
#720=EDGE_CURVE('',#710,#630,#690,.T.);
#730=ORIENTED_EDGE('',*,*,#720,.T.);
#740=CARTESIAN_POINT('',(0.,31.1459503782261,6.75));
#750=DIRECTION('',(1.,0.,0.));
#760=VECTOR('',#750,1.);
#770=LINE('',#740,#760);
#780=EDGE_CURVE('',#710,#550,#770,.T.);
#790=ORIENTED_EDGE('',*,*,#780,.F.);
#800=EDGE_LOOP('',(#790,#730,#650,#570));
#810=FACE_OUTER_BOUND('',#800,.T.);
#820=ADVANCED_FACE('',(#810),#470,.T.);
#830=CARTESIAN_POINT('',(59.,0.,0.));
#840=DIRECTION('',(1.,0.,-0.));
#850=DIRECTION('',(0.,-1.,0.));
#860=AXIS2_PLACEMENT_3D('',#830,#840,#850);
#870=PLANE('',#860);
#880=CARTESIAN_POINT('',(59.,33.,0.));
#890=DIRECTION('',(1.,0.,0.));
#900=DIRECTION('',(0.,-1.,0.));
#910=AXIS2_PLACEMENT_3D('',#880,#890,#900);
#920=CIRCLE('',#910,7.);
#930=CARTESIAN_POINT('',(59.,26.,0.));
#940=VERTEX_POINT('',#930);
#950=EDGE_CURVE('',#710,#940,#920,.T.);
#960=ORIENTED_EDGE('',*,*,#950,.T.);
#970=ORIENTED_EDGE('',*,*,#720,.F.);
#980=CARTESIAN_POINT('',(59.,0.,0.));
#990=DIRECTION('',(-0.,-0.,-1.));
#1000=VECTOR('',#990,1.);
#1010=LINE('',#980,#1000);
#1020=CARTESIAN_POINT('',(59.,0.,-6.75));
#1030=VERTEX_POINT('',#1020);
#1040=EDGE_CURVE('',#630,#1030,#1010,.T.);
#1050=ORIENTED_EDGE('',*,*,#1040,.F.);
#1060=CARTESIAN_POINT('',(59.,36.5,-6.75));
#1070=DIRECTION('',(0.,-1.,0.));
#1080=VECTOR('',#1070,1.);
#1090=LINE('',#1060,#1080);
#1100=CARTESIAN_POINT('',(59.,31.1459503782261,-6.75));
#1110=VERTEX_POINT('',#1100);
#1120=EDGE_CURVE('',#1110,#1030,#1090,.T.);
#1130=ORIENTED_EDGE('',*,*,#1120,.T.);
#1140=EDGE_CURVE('',#940,#1110,#920,.T.);
#1150=ORIENTED_EDGE('',*,*,#1140,.T.);
#1160=EDGE_LOOP('',(#1150,#1130,#1050,#970,#960));
#1170=FACE_OUTER_BOUND('',#1160,.T.);
#1180=ADVANCED_FACE('',(#1170),#870,.F.);
#1190=CARTESIAN_POINT('',(-59.,36.5,0.));
#1200=DIRECTION('',(-1.,0.,0.));
#1210=DIRECTION('',(0.,1.,0.));
#1220=AXIS2_PLACEMENT_3D('',#1190,#1200,#1210);
#1230=PLANE('',#1220);
#1240=CARTESIAN_POINT('',(-59.,36.5,6.75));
#1250=DIRECTION('',(0.,-1.,0.));
#1260=VECTOR('',#1250,1.);
#1270=LINE('',#1240,#1260);
#1280=CARTESIAN_POINT('',(-59.,31.1459503782261,6.75));
#1290=VERTEX_POINT('',#1280);
#1300=CARTESIAN_POINT('',(-59.,0.,6.75));
#1310=VERTEX_POINT('',#1300);
#1320=EDGE_CURVE('',#1290,#1310,#1270,.T.);
#1330=ORIENTED_EDGE('',*,*,#1320,.T.);
#1340=CARTESIAN_POINT('',(-59.,33.,0.));
#1350=DIRECTION('',(1.,0.,0.));
#1360=DIRECTION('',(0.,-1.,0.));
#1370=AXIS2_PLACEMENT_3D('',#1340,#1350,#1360);
#1380=CIRCLE('',#1370,7.);
#1390=CARTESIAN_POINT('',(-59.,26.,0.));
#1400=VERTEX_POINT('',#1390);
#1410=EDGE_CURVE('',#1290,#1400,#1380,.T.);
#1420=ORIENTED_EDGE('',*,*,#1410,.F.);
#1430=CARTESIAN_POINT('',(-59.,31.1459503782261,-6.75));
#1440=VERTEX_POINT('',#1430);
#1450=EDGE_CURVE('',#1400,#1440,#1380,.T.);
#1460=ORIENTED_EDGE('',*,*,#1450,.F.);
#1470=CARTESIAN_POINT('',(-59.,36.5,-6.75));
#1480=DIRECTION('',(0.,-1.,0.));
#1490=VECTOR('',#1480,1.);
#1500=LINE('',#1470,#1490);
#1510=CARTESIAN_POINT('',(-59.,0.,-6.75));
#1520=VERTEX_POINT('',#1510);
#1530=EDGE_CURVE('',#1440,#1520,#1500,.T.);
#1540=ORIENTED_EDGE('',*,*,#1530,.F.);
#1550=CARTESIAN_POINT('',(-59.,0.,0.));
#1560=DIRECTION('',(-0.,-0.,-1.));
#1570=VECTOR('',#1560,1.);
#1580=LINE('',#1550,#1570);
#1590=EDGE_CURVE('',#1310,#1520,#1580,.T.);
#1600=ORIENTED_EDGE('',*,*,#1590,.T.);
#1610=EDGE_LOOP('',(#1600,#1540,#1460,#1420,#1330));
#1620=FACE_OUTER_BOUND('',#1610,.T.);
#1630=ADVANCED_FACE('',(#1620),#1230,.F.);
#1640=CARTESIAN_POINT('',(0.,0.,-6.75));
#1650=DIRECTION('',(0.,0.,1.));
#1660=DIRECTION('',(1.,0.,-0.));
#1670=AXIS2_PLACEMENT_3D('',#1640,#1650,#1660);
#1680=PLANE('',#1670);
#1690=CARTESIAN_POINT('',(69.,0.,-6.75));
#1700=DIRECTION('',(0.,1.,0.));
#1710=VECTOR('',#1700,1.);
#1720=LINE('',#1690,#1710);
#1730=CARTESIAN_POINT('',(69.,0.,-6.75));
#1740=VERTEX_POINT('',#1730);
#1750=CARTESIAN_POINT('',(69.,31.1459503782261,-6.75));
#1760=VERTEX_POINT('',#1750);
#1770=EDGE_CURVE('',#1740,#1760,#1720,.T.);
#1780=ORIENTED_EDGE('',*,*,#1770,.F.);
#1790=CARTESIAN_POINT('',(0.,31.1459503782261,-6.75));
#1800=DIRECTION('',(1.,0.,0.));
#1810=VECTOR('',#1800,1.);
#1820=LINE('',#1790,#1810);
#1830=EDGE_CURVE('',#1110,#1760,#1820,.T.);
#1840=ORIENTED_EDGE('',*,*,#1830,.T.);
#1850=ORIENTED_EDGE('',*,*,#1120,.F.);
#1860=CARTESIAN_POINT('',(59.,0.,-6.75));
#1870=DIRECTION('',(1.,0.,0.));
#1880=VECTOR('',#1870,1.);
#1890=LINE('',#1860,#1880);
#1900=EDGE_CURVE('',#1030,#1740,#1890,.T.);
#1910=ORIENTED_EDGE('',*,*,#1900,.F.);
#1920=EDGE_LOOP('',(#1910,#1850,#1840,#1780));
#1930=FACE_OUTER_BOUND('',#1920,.T.);
#1940=ADVANCED_FACE('',(#1930),#1680,.F.);
#1950=CARTESIAN_POINT('',(0.,33.,0.));
#1960=DIRECTION('',(1.,0.,0.));
#1970=DIRECTION('',(0.,-1.,0.));
#1980=AXIS2_PLACEMENT_3D('',#1950,#1960,#1970);
#1990=CYLINDRICAL_SURFACE('',#1980,7.);
#2000=CARTESIAN_POINT('',(0.,40.,-8.57252759403147E-16));
#2010=DIRECTION('',(1.,0.,0.));
#2020=VECTOR('',#2010,1.);
#2030=LINE('',#2000,#2020);
#2040=CARTESIAN_POINT('',(-69.2,40.,-8.57252759403147E-16));
#2050=VERTEX_POINT('',#2040);
#2060=CARTESIAN_POINT('',(69.2,40.,-8.57252759403147E-16));
#2070=VERTEX_POINT('',#2060);
#2080=EDGE_CURVE('',#2050,#2070,#2030,.T.);
#2090=ORIENTED_EDGE('',*,*,#2080,.T.);
#2100=CARTESIAN_POINT('',(-69.2,33.,0.));
#2110=DIRECTION('',(1.,0.,0.));
#2120=DIRECTION('',(0.,-1.,0.));
#2130=AXIS2_PLACEMENT_3D('',#2100,#2110,#2120);
#2140=CIRCLE('',#2130,7.);
#2150=CARTESIAN_POINT('',(-69.2,26.,0.));
#2160=VERTEX_POINT('',#2150);
#2170=EDGE_CURVE('',#2160,#2050,#2140,.T.);
#2180=ORIENTED_EDGE('',*,*,#2170,.T.);
#2190=CARTESIAN_POINT('',(0.,26.,0.));
#2200=DIRECTION('',(1.,0.,0.));
#2210=VECTOR('',#2200,1.);
#2220=LINE('',#2190,#2210);
#2230=CARTESIAN_POINT('',(-69.,26.,0.));
#2240=VERTEX_POINT('',#2230);
#2250=EDGE_CURVE('',#2160,#2240,#2220,.T.);
#2260=ORIENTED_EDGE('',*,*,#2250,.F.);
#2270=CARTESIAN_POINT('',(-69.,33.,0.));
#2280=DIRECTION('',(1.,0.,0.));
#2290=DIRECTION('',(0.,-1.,0.));
#2300=AXIS2_PLACEMENT_3D('',#2270,#2280,#2290);
#2310=CIRCLE('',#2300,7.);
#2320=CARTESIAN_POINT('',(-69.,31.1459503782261,-6.75));
#2330=VERTEX_POINT('',#2320);
#2340=EDGE_CURVE('',#2240,#2330,#2310,.T.);
#2350=ORIENTED_EDGE('',*,*,#2340,.F.);
#2360=CARTESIAN_POINT('',(0.,31.1459503782261,-6.75));
#2370=DIRECTION('',(1.,0.,0.));
#2380=VECTOR('',#2370,1.);
#2390=LINE('',#2360,#2380);
#2400=EDGE_CURVE('',#2330,#1440,#2390,.T.);
#2410=ORIENTED_EDGE('',*,*,#2400,.F.);
#2420=ORIENTED_EDGE('',*,*,#1450,.T.);
#2430=EDGE_CURVE('',#1400,#940,#2220,.T.);
#2440=ORIENTED_EDGE('',*,*,#2430,.F.);
#2450=ORIENTED_EDGE('',*,*,#1140,.F.);
#2460=ORIENTED_EDGE('',*,*,#1830,.F.);
#2470=CARTESIAN_POINT('',(69.,33.,0.));
#2480=DIRECTION('',(1.,0.,0.));
#2490=DIRECTION('',(0.,-1.,0.));
#2500=AXIS2_PLACEMENT_3D('',#2470,#2480,#2490);
#2510=CIRCLE('',#2500,7.);
#2520=CARTESIAN_POINT('',(69.,26.,0.));
#2530=VERTEX_POINT('',#2520);
#2540=EDGE_CURVE('',#2530,#1760,#2510,.T.);
#2550=ORIENTED_EDGE('',*,*,#2540,.T.);
#2560=CARTESIAN_POINT('',(69.2,26.,0.));
#2570=VERTEX_POINT('',#2560);
#2580=EDGE_CURVE('',#2530,#2570,#2220,.T.);
#2590=ORIENTED_EDGE('',*,*,#2580,.F.);
#2600=CARTESIAN_POINT('',(69.2,33.,0.));
#2610=DIRECTION('',(1.,0.,0.));
#2620=DIRECTION('',(0.,-1.,0.));
#2630=AXIS2_PLACEMENT_3D('',#2600,#2610,#2620);
#2640=CIRCLE('',#2630,7.);
#2650=EDGE_CURVE('',#2570,#2070,#2640,.T.);
#2660=ORIENTED_EDGE('',*,*,#2650,.F.);
#2670=EDGE_LOOP('',(#2660,#2590,#2550,#2460,#2450,#2440,#2420,#2410,
#2350,#2260,#2180,#2090));
#2680=FACE_OUTER_BOUND('',#2670,.T.);
#2690=ADVANCED_FACE('',(#2680),#1990,.T.);
#2700=CARTESIAN_POINT('',(0.,0.,-6.75));
#2710=DIRECTION('',(0.,0.,1.));
#2720=DIRECTION('',(1.,0.,-0.));
#2730=AXIS2_PLACEMENT_3D('',#2700,#2710,#2720);
#2740=PLANE('',#2730);
#2750=CARTESIAN_POINT('',(-69.,0.,-6.75));
#2760=DIRECTION('',(0.,1.,0.));
#2770=VECTOR('',#2760,1.);
#2780=LINE('',#2750,#2770);
#2790=CARTESIAN_POINT('',(-69.,0.,-6.75));
#2800=VERTEX_POINT('',#2790);
#2810=EDGE_CURVE('',#2800,#2330,#2780,.T.);
#2820=ORIENTED_EDGE('',*,*,#2810,.T.);
#2830=CARTESIAN_POINT('',(-59.,0.,-6.75));
#2840=DIRECTION('',(-1.,0.,0.));
#2850=VECTOR('',#2840,1.);
#2860=LINE('',#2830,#2850);
#2870=EDGE_CURVE('',#1520,#2800,#2860,.T.);
#2880=ORIENTED_EDGE('',*,*,#2870,.T.);
#2890=ORIENTED_EDGE('',*,*,#1530,.T.);
#2900=ORIENTED_EDGE('',*,*,#2400,.T.);
#2910=EDGE_LOOP('',(#2900,#2890,#2880,#2820));
#2920=FACE_OUTER_BOUND('',#2910,.T.);
#2930=ADVANCED_FACE('',(#2920),#2740,.F.);
#2940=CARTESIAN_POINT('',(69.,0.,0.));
#2950=DIRECTION('',(0.,1.,0.));
#2960=DIRECTION('',(1.,-0.,0.));
#2970=AXIS2_PLACEMENT_3D('',#2940,#2950,#2960);
#2980=PLANE('',#2970);
#2990=ORIENTED_EDGE('',*,*,#640,.F.);
#3000=CARTESIAN_POINT('',(69.,0.,0.));
#3010=DIRECTION('',(-0.,-0.,-1.));
#3020=VECTOR('',#3010,1.);
#3030=LINE('',#3000,#3020);
#3040=EDGE_CURVE('',#530,#1740,#3030,.T.);
#3050=ORIENTED_EDGE('',*,*,#3040,.F.);
#3060=ORIENTED_EDGE('',*,*,#1900,.T.);
#3070=ORIENTED_EDGE('',*,*,#1040,.T.);
#3080=EDGE_LOOP('',(#3070,#3060,#3050,#2990));
#3090=FACE_OUTER_BOUND('',#3080,.T.);
#3100=CARTESIAN_POINT('',(64.,0.,0.));
#3110=DIRECTION('',(0.,-1.,0.));
#3120=DIRECTION('',(1.,0.,0.));
#3130=AXIS2_PLACEMENT_3D('',#3100,#3110,#3120);
#3140=CIRCLE('',#3130,2.25);
#3150=CARTESIAN_POINT('',(66.25,0.,0.));
#3160=VERTEX_POINT('',#3150);
#3170=CARTESIAN_POINT('',(61.75,0.,2.75545529808154E-16));
#3180=VERTEX_POINT('',#3170);
#3190=EDGE_CURVE('',#3160,#3180,#3140,.T.);
#3200=ORIENTED_EDGE('',*,*,#3190,.F.);
#3210=EDGE_CURVE('',#3180,#3160,#3140,.T.);
#3220=ORIENTED_EDGE('',*,*,#3210,.F.);
#3230=EDGE_LOOP('',(#3220,#3200));
#3240=FACE_BOUND('',#3230,.T.);
#3250=ADVANCED_FACE('',(#3090,#3240),#2980,.F.);
#3260=CARTESIAN_POINT('',(69.,36.5,0.));
#3270=DIRECTION('',(-1.,0.,0.));
#3280=DIRECTION('',(0.,1.,0.));
#3290=AXIS2_PLACEMENT_3D('',#3260,#3270,#3280);
#3300=PLANE('',#3290);
#3310=ORIENTED_EDGE('',*,*,#560,.F.);
#3320=EDGE_CURVE('',#550,#2530,#2510,.T.);
#3330=ORIENTED_EDGE('',*,*,#3320,.F.);
#3340=ORIENTED_EDGE('',*,*,#2540,.F.);
#3350=ORIENTED_EDGE('',*,*,#1770,.T.);
#3360=ORIENTED_EDGE('',*,*,#3040,.T.);
#3370=EDGE_LOOP('',(#3360,#3350,#3340,#3330,#3310));
#3380=FACE_OUTER_BOUND('',#3370,.T.);
#3390=ADVANCED_FACE('',(#3380),#3300,.F.);
#3400=CARTESIAN_POINT('',(-59.,0.,0.));
#3410=DIRECTION('',(0.,1.,-0.));
#3420=DIRECTION('',(1.,-0.,0.));
#3430=AXIS2_PLACEMENT_3D('',#3400,#3410,#3420);
#3440=PLANE('',#3430);
#3450=CARTESIAN_POINT('',(-59.,0.,6.75));
#3460=DIRECTION('',(-1.,0.,0.));
#3470=VECTOR('',#3460,1.);
#3480=LINE('',#3450,#3470);
#3490=CARTESIAN_POINT('',(-69.,0.,6.75));
#3500=VERTEX_POINT('',#3490);
#3510=EDGE_CURVE('',#1310,#3500,#3480,.T.);
#3520=ORIENTED_EDGE('',*,*,#3510,.T.);
#3530=ORIENTED_EDGE('',*,*,#1590,.F.);
#3540=ORIENTED_EDGE('',*,*,#2870,.F.);
#3550=CARTESIAN_POINT('',(-69.,0.,0.));
#3560=DIRECTION('',(-0.,-0.,-1.));
#3570=VECTOR('',#3560,1.);
#3580=LINE('',#3550,#3570);
#3590=EDGE_CURVE('',#3500,#2800,#3580,.T.);
#3600=ORIENTED_EDGE('',*,*,#3590,.T.);
#3610=EDGE_LOOP('',(#3600,#3540,#3530,#3520));
#3620=FACE_OUTER_BOUND('',#3610,.T.);
#3630=CARTESIAN_POINT('',(-64.,0.,0.));
#3640=DIRECTION('',(0.,-1.,0.));
#3650=DIRECTION('',(1.,0.,0.));
#3660=AXIS2_PLACEMENT_3D('',#3630,#3640,#3650);
#3670=CIRCLE('',#3660,2.25);
#3680=CARTESIAN_POINT('',(-61.75,0.,0.));
#3690=VERTEX_POINT('',#3680);
#3700=CARTESIAN_POINT('',(-66.25,0.,2.75545529808154E-16));
#3710=VERTEX_POINT('',#3700);
#3720=EDGE_CURVE('',#3690,#3710,#3670,.T.);
#3730=ORIENTED_EDGE('',*,*,#3720,.F.);
#3740=EDGE_CURVE('',#3710,#3690,#3670,.T.);
#3750=ORIENTED_EDGE('',*,*,#3740,.F.);
#3760=EDGE_LOOP('',(#3750,#3730));
#3770=FACE_BOUND('',#3760,.T.);
#3780=ADVANCED_FACE('',(#3620,#3770),#3440,.F.);
#3790=CARTESIAN_POINT('',(0.,0.,6.75));
#3800=DIRECTION('',(0.,0.,1.));
#3810=DIRECTION('',(1.,0.,-0.));
#3820=AXIS2_PLACEMENT_3D('',#3790,#3800,#3810);
#3830=PLANE('',#3820);
#3840=ORIENTED_EDGE('',*,*,#1320,.F.);
#3850=ORIENTED_EDGE('',*,*,#3510,.F.);
#3860=CARTESIAN_POINT('',(-69.,0.,6.75));
#3870=DIRECTION('',(0.,1.,0.));
#3880=VECTOR('',#3870,1.);
#3890=LINE('',#3860,#3880);
#3900=CARTESIAN_POINT('',(-69.,31.1459503782261,6.75));
#3910=VERTEX_POINT('',#3900);
#3920=EDGE_CURVE('',#3500,#3910,#3890,.T.);
#3930=ORIENTED_EDGE('',*,*,#3920,.F.);
#3940=CARTESIAN_POINT('',(0.,31.1459503782261,6.75));
#3950=DIRECTION('',(1.,0.,0.));
#3960=VECTOR('',#3950,1.);
#3970=LINE('',#3940,#3960);
#3980=EDGE_CURVE('',#3910,#1290,#3970,.T.);
#3990=ORIENTED_EDGE('',*,*,#3980,.F.);
#4000=EDGE_LOOP('',(#3990,#3930,#3850,#3840));
#4010=FACE_OUTER_BOUND('',#4000,.T.);
#4020=ADVANCED_FACE('',(#4010),#3830,.T.);
#4030=CARTESIAN_POINT('',(-69.,0.,0.));
#4040=DIRECTION('',(1.,0.,0.));
#4050=DIRECTION('',(0.,-1.,0.));
#4060=AXIS2_PLACEMENT_3D('',#4030,#4040,#4050);
#4070=PLANE('',#4060);
#4080=EDGE_CURVE('',#3910,#2240,#2310,.T.);
#4090=ORIENTED_EDGE('',*,*,#4080,.T.);
#4100=ORIENTED_EDGE('',*,*,#3920,.T.);
#4110=ORIENTED_EDGE('',*,*,#3590,.F.);
#4120=ORIENTED_EDGE('',*,*,#2810,.F.);
#4130=ORIENTED_EDGE('',*,*,#2340,.T.);
#4140=EDGE_LOOP('',(#4130,#4120,#4110,#4100,#4090));
#4150=FACE_OUTER_BOUND('',#4140,.T.);
#4160=ADVANCED_FACE('',(#4150),#4070,.F.);
#4170=CARTESIAN_POINT('',(70.,33.,0.));
#4180=DIRECTION('',(-1.,0.,0.));
#4190=DIRECTION('',(0.,1.,0.));
#4200=AXIS2_PLACEMENT_3D('',#4170,#4180,#4190);
#4210=CONICAL_SURFACE('',#4200,6.2,0.78539816339745);
#4220=CARTESIAN_POINT('',(70.,39.2,0.));
#4230=DIRECTION('',(-0.707106781186546,0.707106781186549,0.));
#4240=VECTOR('',#4230,8.76812408671318);
#4250=LINE('',#4220,#4240);
#4260=EDGE_CURVE('',#330,#2070,#4250,.T.);
#4270=ORIENTED_EDGE('',*,*,#4260,.F.);
#4280=ORIENTED_EDGE('',*,*,#2650,.T.);
#4290=CARTESIAN_POINT('',(70.,26.8,-7.59281015471359E-16));
#4300=DIRECTION('',(-0.707106781186546,-0.707106781186549,
-8.65956056235495E-17));
#4310=VECTOR('',#4300,8.76812408671317);
#4320=LINE('',#4290,#4310);
#4330=EDGE_CURVE('',#350,#2570,#4320,.T.);
#4340=ORIENTED_EDGE('',*,*,#4330,.T.);
#4350=ORIENTED_EDGE('',*,*,#380,.F.);
#4360=EDGE_LOOP('',(#4350,#4340,#4280,#4270));
#4370=FACE_OUTER_BOUND('',#4360,.T.);
#4380=ADVANCED_FACE('',(#4370),#4210,.T.);
#4390=CARTESIAN_POINT('',(-69.2,33.,0.));
#4400=DIRECTION('',(1.,0.,0.));
#4410=DIRECTION('',(0.,-1.,0.));
#4420=AXIS2_PLACEMENT_3D('',#4390,#4400,#4410);
#4430=CONICAL_SURFACE('',#4420,7.,0.78539816339745);
#4440=CARTESIAN_POINT('',(-69.2,40.,-8.57252759403147E-16));
#4450=DIRECTION('',(0.707106781186546,0.707106781186549,
-8.65956056235495E-17));
#4460=VECTOR('',#4450,9.89949493661164);
#4470=LINE('',#4440,#4460);
#4480=EDGE_CURVE('',#120,#2050,#4470,.T.);
#4490=ORIENTED_EDGE('',*,*,#4480,.T.);
#4500=ORIENTED_EDGE('',*,*,#170,.T.);
#4510=CARTESIAN_POINT('',(-69.2,26.,0.));
#4520=DIRECTION('',(0.707106781186546,-0.707106781186549,0.));
#4530=VECTOR('',#4520,9.89949493661164);
#4540=LINE('',#4510,#4530);
#4550=EDGE_CURVE('',#140,#2160,#4540,.T.);
#4560=ORIENTED_EDGE('',*,*,#4550,.F.);
#4570=ORIENTED_EDGE('',*,*,#2170,.F.);
#4580=EDGE_LOOP('',(#4570,#4560,#4500,#4490));
#4590=FACE_OUTER_BOUND('',#4580,.T.);
#4600=ADVANCED_FACE('',(#4590),#4430,.T.);
#4610=CARTESIAN_POINT('',(-64.,26.,0.));
#4620=DIRECTION('',(0.,-1.,0.));
#4630=DIRECTION('',(1.,0.,0.));
#4640=AXIS2_PLACEMENT_3D('',#4610,#4620,#4630);
#4650=PLANE('',#4640);
#4660=CARTESIAN_POINT('',(64.,26.,0.));
#4670=DIRECTION('',(0.,-1.,0.));
#4680=DIRECTION('',(1.,0.,0.));
#4690=AXIS2_PLACEMENT_3D('',#4660,#4670,#4680);
#4700=CIRCLE('',#4690,2.25);
#4710=CARTESIAN_POINT('',(66.25,26.,0.));
#4720=VERTEX_POINT('',#4710);
#4730=CARTESIAN_POINT('',(61.75,26.,2.75545529808154E-16));
#4740=VERTEX_POINT('',#4730);
#4750=EDGE_CURVE('',#4720,#4740,#4700,.T.);
#4760=ORIENTED_EDGE('',*,*,#4750,.T.);
#4770=EDGE_CURVE('',#4740,#4720,#4700,.T.);
#4780=ORIENTED_EDGE('',*,*,#4770,.T.);
#4790=EDGE_LOOP('',(#4780,#4760));
#4800=FACE_OUTER_BOUND('',#4790,.T.);
#4810=ADVANCED_FACE('',(#4800),#4650,.T.);
#4820=CARTESIAN_POINT('',(64.,0.,0.));
#4830=DIRECTION('',(0.,-1.,0.));
#4840=DIRECTION('',(1.,0.,0.));
#4850=AXIS2_PLACEMENT_3D('',#4820,#4830,#4840);
#4860=CYLINDRICAL_SURFACE('',#4850,2.25);
#4870=CARTESIAN_POINT('',(66.25,0.,0.));
#4880=DIRECTION('',(0.,-1.,0.));
#4890=VECTOR('',#4880,1.);
#4900=LINE('',#4870,#4890);
#4910=EDGE_CURVE('',#4720,#3160,#4900,.T.);
#4920=ORIENTED_EDGE('',*,*,#4910,.F.);
#4930=ORIENTED_EDGE('',*,*,#3210,.T.);
#4940=CARTESIAN_POINT('',(61.75,0.,2.75545529808154E-16));
#4950=DIRECTION('',(0.,-1.,0.));
#4960=VECTOR('',#4950,1.);
#4970=LINE('',#4940,#4960);
#4980=EDGE_CURVE('',#4740,#3180,#4970,.T.);
#4990=ORIENTED_EDGE('',*,*,#4980,.T.);
#5000=ORIENTED_EDGE('',*,*,#4770,.F.);
#5010=EDGE_LOOP('',(#5000,#4990,#4930,#4920));
#5020=FACE_OUTER_BOUND('',#5010,.T.);
#5030=ADVANCED_FACE('',(#5020),#4860,.F.);
#5040=CARTESIAN_POINT('',(-64.,26.,0.));
#5050=DIRECTION('',(0.,-1.,0.));
#5060=DIRECTION('',(1.,0.,0.));
#5070=AXIS2_PLACEMENT_3D('',#5040,#5050,#5060);
#5080=PLANE('',#5070);
#5090=CARTESIAN_POINT('',(-64.,26.,0.));
#5100=DIRECTION('',(0.,-1.,0.));
#5110=DIRECTION('',(1.,0.,0.));
#5120=AXIS2_PLACEMENT_3D('',#5090,#5100,#5110);
#5130=CIRCLE('',#5120,2.25);
#5140=CARTESIAN_POINT('',(-61.75,26.,0.));
#5150=VERTEX_POINT('',#5140);
#5160=CARTESIAN_POINT('',(-66.25,26.,2.75545529808154E-16));
#5170=VERTEX_POINT('',#5160);
#5180=EDGE_CURVE('',#5150,#5170,#5130,.T.);
#5190=ORIENTED_EDGE('',*,*,#5180,.T.);
#5200=EDGE_CURVE('',#5170,#5150,#5130,.T.);
#5210=ORIENTED_EDGE('',*,*,#5200,.T.);
#5220=EDGE_LOOP('',(#5210,#5190));
#5230=FACE_OUTER_BOUND('',#5220,.T.);
#5240=ADVANCED_FACE('',(#5230),#5080,.T.);
#5250=CARTESIAN_POINT('',(-64.,0.,0.));
#5260=DIRECTION('',(0.,-1.,0.));
#5270=DIRECTION('',(1.,0.,0.));
#5280=AXIS2_PLACEMENT_3D('',#5250,#5260,#5270);
#5290=CYLINDRICAL_SURFACE('',#5280,2.25);
#5300=CARTESIAN_POINT('',(-61.75,0.,0.));
#5310=DIRECTION('',(0.,-1.,0.));
#5320=VECTOR('',#5310,1.);
#5330=LINE('',#5300,#5320);
#5340=EDGE_CURVE('',#5150,#3690,#5330,.T.);
#5350=ORIENTED_EDGE('',*,*,#5340,.F.);
#5360=ORIENTED_EDGE('',*,*,#3740,.T.);
#5370=CARTESIAN_POINT('',(-66.25,0.,2.75545529808154E-16));
#5380=DIRECTION('',(0.,-1.,0.));
#5390=VECTOR('',#5380,1.);
#5400=LINE('',#5370,#5390);
#5410=EDGE_CURVE('',#5170,#3710,#5400,.T.);
#5420=ORIENTED_EDGE('',*,*,#5410,.T.);
#5430=ORIENTED_EDGE('',*,*,#5200,.F.);
#5440=EDGE_LOOP('',(#5430,#5420,#5360,#5350));
#5450=FACE_OUTER_BOUND('',#5440,.T.);
#5460=ADVANCED_FACE('',(#5450),#5290,.F.);
#5470=CARTESIAN_POINT('',(-69.2,33.,0.));
#5480=DIRECTION('',(1.,0.,0.));
#5490=DIRECTION('',(0.,-1.,0.));
#5500=AXIS2_PLACEMENT_3D('',#5470,#5480,#5490);
#5510=CONICAL_SURFACE('',#5500,7.,0.78539816339745);
#5520=ORIENTED_EDGE('',*,*,#150,.T.);
#5530=ORIENTED_EDGE('',*,*,#4480,.F.);
#5540=EDGE_CURVE('',#2050,#2160,#2140,.T.);
#5550=ORIENTED_EDGE('',*,*,#5540,.F.);
#5560=ORIENTED_EDGE('',*,*,#4550,.T.);
#5570=EDGE_LOOP('',(#5560,#5550,#5530,#5520));
#5580=FACE_OUTER_BOUND('',#5570,.T.);
#5590=ADVANCED_FACE('',(#5580),#5510,.T.);
#5600=CARTESIAN_POINT('',(0.,33.,0.));
#5610=DIRECTION('',(1.,0.,0.));
#5620=DIRECTION('',(0.,-1.,0.));
#5630=AXIS2_PLACEMENT_3D('',#5600,#5610,#5620);
#5640=CYLINDRICAL_SURFACE('',#5630,7.);
#5650=ORIENTED_EDGE('',*,*,#1410,.T.);
#5660=ORIENTED_EDGE('',*,*,#3980,.T.);
#5670=ORIENTED_EDGE('',*,*,#4080,.F.);
#5680=ORIENTED_EDGE('',*,*,#2250,.T.);
#5690=ORIENTED_EDGE('',*,*,#5540,.T.);
#5700=ORIENTED_EDGE('',*,*,#2080,.F.);
#5710=EDGE_CURVE('',#2070,#2570,#2640,.T.);
#5720=ORIENTED_EDGE('',*,*,#5710,.F.);
#5730=ORIENTED_EDGE('',*,*,#2580,.T.);
#5740=ORIENTED_EDGE('',*,*,#3320,.T.);
#5750=ORIENTED_EDGE('',*,*,#780,.T.);
#5760=ORIENTED_EDGE('',*,*,#950,.F.);
#5770=ORIENTED_EDGE('',*,*,#2430,.T.);
#5780=EDGE_LOOP('',(#5770,#5760,#5750,#5740,#5730,#5720,#5700,#5690,
#5680,#5670,#5660,#5650));
#5790=FACE_OUTER_BOUND('',#5780,.T.);
#5800=ADVANCED_FACE('',(#5790),#5640,.T.);
#5810=CARTESIAN_POINT('',(-64.,0.,0.));
#5820=DIRECTION('',(0.,-1.,0.));
#5830=DIRECTION('',(1.,0.,0.));
#5840=AXIS2_PLACEMENT_3D('',#5810,#5820,#5830);
#5850=CYLINDRICAL_SURFACE('',#5840,2.25);
#5860=ORIENTED_EDGE('',*,*,#5180,.F.);
#5870=ORIENTED_EDGE('',*,*,#5410,.F.);
#5880=ORIENTED_EDGE('',*,*,#3720,.T.);
#5890=ORIENTED_EDGE('',*,*,#5340,.T.);
#5900=EDGE_LOOP('',(#5890,#5880,#5870,#5860));
#5910=FACE_OUTER_BOUND('',#5900,.T.);
#5920=ADVANCED_FACE('',(#5910),#5850,.F.);
#5930=CARTESIAN_POINT('',(70.,33.,0.));
#5940=DIRECTION('',(-1.,0.,0.));
#5950=DIRECTION('',(0.,1.,0.));
#5960=AXIS2_PLACEMENT_3D('',#5930,#5940,#5950);
#5970=CONICAL_SURFACE('',#5960,6.2,0.78539816339745);
#5980=ORIENTED_EDGE('',*,*,#360,.F.);
#5990=ORIENTED_EDGE('',*,*,#4330,.F.);
#6000=ORIENTED_EDGE('',*,*,#5710,.T.);
#6010=ORIENTED_EDGE('',*,*,#4260,.T.);
#6020=EDGE_LOOP('',(#6010,#6000,#5990,#5980));
#6030=FACE_OUTER_BOUND('',#6020,.T.);
#6040=ADVANCED_FACE('',(#6030),#5970,.T.);
#6050=CARTESIAN_POINT('',(64.,0.,0.));
#6060=DIRECTION('',(0.,-1.,0.));
#6070=DIRECTION('',(1.,0.,0.));
#6080=AXIS2_PLACEMENT_3D('',#6050,#6060,#6070);
#6090=CYLINDRICAL_SURFACE('',#6080,2.25);
#6100=ORIENTED_EDGE('',*,*,#4750,.F.);
#6110=ORIENTED_EDGE('',*,*,#4980,.F.);
#6120=ORIENTED_EDGE('',*,*,#3190,.T.);
#6130=ORIENTED_EDGE('',*,*,#4910,.T.);
#6140=EDGE_LOOP('',(#6130,#6120,#6110,#6100));
#6150=FACE_OUTER_BOUND('',#6140,.T.);
#6160=ADVANCED_FACE('',(#6150),#6090,.F.);
#6170=CLOSED_SHELL('',(#210,#420,#820,#1180,#1630,#1940,#2690,#2930,
#3250,#3390,#3780,#4020,#4160,#4380,#4600,#4810,#5030,#5240,#5460,#5590,
#5800,#5920,#6040,#6160));
#6180=MANIFOLD_SOLID_BREP('',#6170);
#6190=CARTESIAN_POINT('',(0.,0.,0.));
#6200=DIRECTION('',(0.,0.,1.));
#6210=DIRECTION('',(1.,0.,0.));
#6220=AXIS2_PLACEMENT_3D('',#6190,#6200,#6210);
#6230=APPLICATION_CONTEXT(' ');
#6240=APPLICATION_PROTOCOL_DEFINITION(' ','automotive_design',1998,#6230
);
#6250=PRODUCT_CONTEXT('',#6230,'mechanical');
#6260=PRODUCT_DEFINITION_CONTEXT('part definition',#6230,'design');
#6270=PRODUCT('NI-4582','NI-4582','',(#6250));
#6280=PRODUCT_RELATED_PRODUCT_CATEGORY('part',' ',(#6270));
#6290=PRODUCT_DEFINITION_FORMATION_WITH_SPECIFIED_SOURCE('','',#6270,
.BOUGHT.);
#6300=PRODUCT_DEFINITION('',' ',#6290,#6260);
#6310=PRODUCT_DEFINITION_SHAPE('','',#6300);
#6320=DIMENSIONAL_EXPONENTS(1.,0.,0.,0.,0.,0.,0.);
#6330=DIMENSIONAL_EXPONENTS(0.,0.,0.,0.,0.,0.,0.);
#6340=DIMENSIONAL_EXPONENTS(0.,0.,0.,0.,0.,0.,0.);
#6350=(LENGTH_UNIT() NAMED_UNIT(*) SI_UNIT(.MILLI.,.METRE.));
#6360=(NAMED_UNIT(*) PLANE_ANGLE_UNIT() SI_UNIT($,.RADIAN.));
#6370=(NAMED_UNIT(*) SI_UNIT($,.STERADIAN.) SOLID_ANGLE_UNIT());
#6380=(GEOMETRIC_REPRESENTATION_CONTEXT(3) 
GLOBAL_UNCERTAINTY_ASSIGNED_CONTEXT((#6390)) 
GLOBAL_UNIT_ASSIGNED_CONTEXT((#6350,#6360,#6370)) REPRESENTATION_CONTEXT
('',''));
#6390=UNCERTAINTY_MEASURE_WITH_UNIT(LENGTH_MEASURE(1.E-6),#6350,
'distance_accuracy_value','maximum gap value');
#6400=ADVANCED_BREP_SHAPE_REPRESENTATION('',(#6220,#6180),#6380);
#6410=SHAPE_DEFINITION_REPRESENTATION(#6310,#6400);
#6420=COLOUR_RGB('',0.600000023841858,0.600000023841858,
0.600000023841858);
#6430=FILL_AREA_STYLE_COLOUR('',#6420);
#6440=FILL_AREA_STYLE('',(#6430));
#6450=SURFACE_STYLE_FILL_AREA(#6440);
#6460=SURFACE_SIDE_STYLE('',(#6450));
#6470=SURFACE_STYLE_USAGE(.BOTH.,#6460);
#6480=PRESENTATION_STYLE_ASSIGNMENT((#6470));
#6490=STYLED_ITEM('',(#6480),#6180);
#6500=DRAUGHTING_MODEL('',(#6490),#6380);
ENDSEC;
END-ISO-10303-21;
