ISO-10303-21;
HEADER;
FILE_DESCRIPTION(('Creo Elements/Direct Modeling STEP Export'),'2;1');
FILE_NAME('902-15.stp','2019-03-18T 8:58:47',(''),(''),
'Creo Elements/Direct Modeling STEP processor for AP214 (Solid Model)',
'Creo Elements/Direct Modeling 20.0  12-Nov-2016 (C) Parametric Technolo
gy GmbH','');
FILE_SCHEMA(('AUTOMOTIVE_DESIGN { 1 0 10303 214 1 1 1 1 }'));
ENDSEC;
DATA;
#10=CARTESIAN_POINT('',(2.,0.,0.));
#20=DIRECTION('',(-0.,1.,0.));
#30=DIRECTION('',(1.,0.,0.));
#40=AXIS2_PLACEMENT_3D('',#10,#20,#30);
#50=PLANE('',#40);
#60=CARTESIAN_POINT('',(0.,0.,0.));
#70=DIRECTION('',(0.,-1.,0.));
#80=DIRECTION('',(1.,0.,0.));
#90=AXIS2_PLACEMENT_3D('',#60,#70,#80);
#100=CIRCLE('',#90,1.65);
#110=CARTESIAN_POINT('',(1.65,0.,0.));
#120=VERTEX_POINT('',#110);
#130=CARTESIAN_POINT('',(-1.65,0.,2.02066721859313E-16));
#140=VERTEX_POINT('',#130);
#150=EDGE_CURVE('',#120,#140,#100,.T.);
#160=ORIENTED_EDGE('',*,*,#150,.F.);
#170=EDGE_CURVE('',#140,#120,#100,.T.);
#180=ORIENTED_EDGE('',*,*,#170,.F.);
#190=EDGE_LOOP('',(#180,#160));
#200=FACE_BOUND('',#190,.T.);
#210=CARTESIAN_POINT('',(0.,0.,0.));
#220=DIRECTION('',(0.,1.,0.));
#230=DIRECTION('',(1.,0.,0.));
#240=AXIS2_PLACEMENT_3D('',#210,#220,#230);
#250=CIRCLE('',#240,4.);
#260=CARTESIAN_POINT('',(4.,0.,0.));
#270=VERTEX_POINT('',#260);
#280=CARTESIAN_POINT('',(-4.,0.,-4.89858719658941E-16));
#290=VERTEX_POINT('',#280);
#300=EDGE_CURVE('',#270,#290,#250,.T.);
#310=ORIENTED_EDGE('',*,*,#300,.F.);
#320=EDGE_CURVE('',#290,#270,#250,.T.);
#330=ORIENTED_EDGE('',*,*,#320,.F.);
#340=EDGE_LOOP('',(#330,#310));
#350=FACE_OUTER_BOUND('',#340,.T.);
#360=ADVANCED_FACE('',(#200,#350),#50,.F.);
#370=CARTESIAN_POINT('',(0.,1.57785561488762,0.));
#380=DIRECTION('',(0.,1.,0.));
#390=DIRECTION('',(1.,0.,0.));
#400=AXIS2_PLACEMENT_3D('',#370,#380,#390);
#410=CYLINDRICAL_SURFACE('',#400,4.);
#420=CARTESIAN_POINT('',(4.,1.57785561488762,0.));
#430=DIRECTION('',(0.,1.,0.));
#440=VECTOR('',#430,1.);
#450=LINE('',#420,#440);
#460=CARTESIAN_POINT('',(4.,3.15571122977524,0.));
#470=VERTEX_POINT('',#460);
#480=EDGE_CURVE('',#270,#470,#450,.T.);
#490=ORIENTED_EDGE('',*,*,#480,.T.);
#500=ORIENTED_EDGE('',*,*,#320,.T.);
#510=CARTESIAN_POINT('',(-4.,1.57785561488762,-4.89858719658941E-16));
#520=DIRECTION('',(0.,1.,0.));
#530=VECTOR('',#520,1.);
#540=LINE('',#510,#530);
#550=CARTESIAN_POINT('',(-4.,3.15571122977524,0.));
#560=VERTEX_POINT('',#550);
#570=EDGE_CURVE('',#290,#560,#540,.T.);
#580=ORIENTED_EDGE('',*,*,#570,.F.);
#590=CARTESIAN_POINT('',(0.,3.15571122977524,0.));
#600=DIRECTION('',(0.,1.,0.));
#610=DIRECTION('',(1.,0.,0.));
#620=AXIS2_PLACEMENT_3D('',#590,#600,#610);
#630=CIRCLE('',#620,4.);
#640=EDGE_CURVE('',#560,#470,#630,.T.);
#650=ORIENTED_EDGE('',*,*,#640,.F.);
#660=EDGE_LOOP('',(#650,#580,#500,#490));
#670=FACE_OUTER_BOUND('',#660,.T.);
#680=ADVANCED_FACE('',(#670),#410,.T.);
#690=CARTESIAN_POINT('',(0.,9.5,0.));
#700=DIRECTION('',(0.,1.,0.));
#710=DIRECTION('',(1.,0.,0.));
#720=AXIS2_PLACEMENT_3D('',#690,#700,#710);
#730=SPHERICAL_SURFACE('',#720,7.5);
#740=CARTESIAN_POINT('',(0.,9.5,0.));
#750=DIRECTION('',(0.,0.,-1.));
#760=DIRECTION('',(1.,-0.,0.));
#770=AXIS2_PLACEMENT_3D('',#740,#750,#760);
#780=CIRCLE('',#770,7.5);
#790=CARTESIAN_POINT('',(-1.37772764904077E-15,17.,0.));
#800=VERTEX_POINT('',#790);
#810=EDGE_CURVE('',#560,#800,#780,.T.);
#820=ORIENTED_EDGE('',*,*,#810,.F.);
#830=EDGE_CURVE('',#800,#470,#780,.T.);
#840=ORIENTED_EDGE('',*,*,#830,.F.);
#850=ORIENTED_EDGE('',*,*,#640,.T.);
#860=EDGE_LOOP('',(#850,#840,#820));
#870=FACE_OUTER_BOUND('',#860,.T.);
#880=ADVANCED_FACE('',(#870),#730,.T.);
#890=CARTESIAN_POINT('',(0.,3.5,0.));
#900=DIRECTION('',(0.,-1.,0.));
#910=DIRECTION('',(1.,0.,0.));
#920=AXIS2_PLACEMENT_3D('',#890,#900,#910);
#930=CYLINDRICAL_SURFACE('',#920,1.65);
#940=CARTESIAN_POINT('',(-1.65,3.5,2.02066721859313E-16));
#950=DIRECTION('',(0.,-1.,0.));
#960=VECTOR('',#950,1.);
#970=LINE('',#940,#960);
#980=CARTESIAN_POINT('',(-1.65,7.,2.02066721859313E-16));
#990=VERTEX_POINT('',#980);
#1000=EDGE_CURVE('',#990,#140,#970,.T.);
#1010=ORIENTED_EDGE('',*,*,#1000,.T.);
#1020=CARTESIAN_POINT('',(0.,7.,0.));
#1030=DIRECTION('',(0.,1.,0.));
#1040=DIRECTION('',(1.,0.,0.));
#1050=AXIS2_PLACEMENT_3D('',#1020,#1030,#1040);
#1060=CIRCLE('',#1050,1.65);
#1070=CARTESIAN_POINT('',(1.65,7.,0.));
#1080=VERTEX_POINT('',#1070);
#1090=EDGE_CURVE('',#1080,#990,#1060,.T.);
#1100=ORIENTED_EDGE('',*,*,#1090,.T.);
#1110=CARTESIAN_POINT('',(1.65,3.5,0.));
#1120=DIRECTION('',(0.,-1.,0.));
#1130=VECTOR('',#1120,1.);
#1140=LINE('',#1110,#1130);
#1150=EDGE_CURVE('',#1080,#120,#1140,.T.);
#1160=ORIENTED_EDGE('',*,*,#1150,.F.);
#1170=ORIENTED_EDGE('',*,*,#170,.T.);
#1180=EDGE_LOOP('',(#1170,#1160,#1100,#1010));
#1190=FACE_OUTER_BOUND('',#1180,.T.);
#1200=ADVANCED_FACE('M4-0.7_3371234',(#1190),#930,.F.);
#1210=COLOUR_RGB('',1.,0.,0.);
#1220=FILL_AREA_STYLE_COLOUR('',#1210);
#1230=FILL_AREA_STYLE('',(#1220));
#1240=SURFACE_STYLE_FILL_AREA(#1230);
#1250=SURFACE_SIDE_STYLE('',(#1240));
#1260=SURFACE_STYLE_USAGE(.BOTH.,#1250);
#1270=PRESENTATION_STYLE_ASSIGNMENT((#1260));
#1280=CARTESIAN_POINT('',(1.6425,7.,0.));
#1290=DIRECTION('',(0.,-1.,0.));
#1300=DIRECTION('',(1.,0.,0.));
#1310=AXIS2_PLACEMENT_3D('',#1280,#1290,#1300);
#1320=PLANE('',#1310);
#1330=CARTESIAN_POINT('',(0.,7.,0.));
#1340=DIRECTION('',(0.,1.,0.));
#1350=DIRECTION('',(1.,0.,0.));
#1360=AXIS2_PLACEMENT_3D('',#1330,#1340,#1350);
#1370=CIRCLE('',#1360,1.635);
#1380=CARTESIAN_POINT('',(1.635,7.,0.));
#1390=VERTEX_POINT('',#1380);
#1400=CARTESIAN_POINT('',(-1.635,7.,2.00229751660592E-16));
#1410=VERTEX_POINT('',#1400);
#1420=EDGE_CURVE('',#1390,#1410,#1370,.T.);
#1430=ORIENTED_EDGE('',*,*,#1420,.T.);
#1440=EDGE_CURVE('',#1410,#1390,#1370,.T.);
#1450=ORIENTED_EDGE('',*,*,#1440,.T.);
#1460=EDGE_LOOP('',(#1450,#1430));
#1470=FACE_BOUND('',#1460,.T.);
#1480=ORIENTED_EDGE('',*,*,#1090,.F.);
#1490=EDGE_CURVE('',#990,#1080,#1060,.T.);
#1500=ORIENTED_EDGE('',*,*,#1490,.F.);
#1510=EDGE_LOOP('',(#1500,#1480));
#1520=FACE_OUTER_BOUND('',#1510,.T.);
#1530=ADVANCED_FACE('',(#1470,#1520),#1320,.T.);
#1540=CARTESIAN_POINT('',(0.,8.5,0.));
#1550=DIRECTION('',(0.,-1.,0.));
#1560=DIRECTION('',(1.,0.,0.));
#1570=AXIS2_PLACEMENT_3D('',#1540,#1550,#1560);
#1580=CYLINDRICAL_SURFACE('',#1570,1.635);
#1590=CARTESIAN_POINT('',(1.635,8.5,0.));
#1600=DIRECTION('',(0.,-1.,0.));
#1610=VECTOR('',#1600,1.);
#1620=LINE('',#1590,#1610);
#1630=CARTESIAN_POINT('',(1.635,10.,0.));
#1640=VERTEX_POINT('',#1630);
#1650=EDGE_CURVE('',#1640,#1390,#1620,.T.);
#1660=ORIENTED_EDGE('',*,*,#1650,.T.);
#1670=CARTESIAN_POINT('',(0.,10.,0.));
#1680=DIRECTION('',(0.,1.,0.));
#1690=DIRECTION('',(1.,0.,0.));
#1700=AXIS2_PLACEMENT_3D('',#1670,#1680,#1690);
#1710=CIRCLE('',#1700,1.635);
#1720=CARTESIAN_POINT('',(-1.635,10.,2.00229751660592E-16));
#1730=VERTEX_POINT('',#1720);
#1740=EDGE_CURVE('',#1730,#1640,#1710,.T.);
#1750=ORIENTED_EDGE('',*,*,#1740,.T.);
#1760=CARTESIAN_POINT('',(-1.635,8.5,2.00229751660592E-16));
#1770=DIRECTION('',(0.,-1.,0.));
#1780=VECTOR('',#1770,1.);
#1790=LINE('',#1760,#1780);
#1800=EDGE_CURVE('',#1730,#1410,#1790,.T.);
#1810=ORIENTED_EDGE('',*,*,#1800,.F.);
#1820=ORIENTED_EDGE('',*,*,#1440,.F.);
#1830=EDGE_LOOP('',(#1820,#1810,#1750,#1660));
#1840=FACE_OUTER_BOUND('',#1830,.T.);
#1850=ADVANCED_FACE('',(#1840),#1580,.F.);
#1860=CARTESIAN_POINT('',(0.,10.,0.));
#1870=DIRECTION('',(0.,-1.,0.));
#1880=DIRECTION('',(1.,0.,0.));
#1890=AXIS2_PLACEMENT_3D('',#1860,#1870,#1880);
#1900=CONICAL_SURFACE('',#1890,1.635,1.02974425867666);
#1910=CARTESIAN_POINT('',(1.635,10.,0.));
#1920=DIRECTION('',(0.857167300702113,-0.515038074910054,0.));
#1930=VECTOR('',#1920,1.90744560444706);
#1940=LINE('',#1910,#1930);
#1950=CARTESIAN_POINT('',(-2.22044604925031E-16,10.9824071121101,
2.46519032881566E-32));
#1960=VERTEX_POINT('',#1950);
#1970=EDGE_CURVE('',#1960,#1640,#1940,.T.);
#1980=ORIENTED_EDGE('',*,*,#1970,.T.);
#1990=CARTESIAN_POINT('',(-1.635,10.,2.00229751660592E-16));
#2000=DIRECTION('',(-0.857167300702113,-0.515038074910054,
1.04972719113862E-16));
#2010=VECTOR('',#2000,1.90744560444706);
#2020=LINE('',#1990,#2010);
#2030=EDGE_CURVE('',#1960,#1730,#2020,.T.);
#2040=ORIENTED_EDGE('',*,*,#2030,.F.);
#2050=ORIENTED_EDGE('',*,*,#1740,.F.);
#2060=EDGE_LOOP('',(#2050,#2040,#1980));
#2070=FACE_OUTER_BOUND('',#2060,.T.);
#2080=ADVANCED_FACE('',(#2070),#1900,.F.);
#2090=CARTESIAN_POINT('',(0.,10.,0.));
#2100=DIRECTION('',(0.,-1.,0.));
#2110=DIRECTION('',(1.,0.,0.));
#2120=AXIS2_PLACEMENT_3D('',#2090,#2100,#2110);
#2130=CONICAL_SURFACE('',#2120,1.635,1.02974425867666);
#2140=ORIENTED_EDGE('',*,*,#1970,.F.);
#2150=EDGE_CURVE('',#1640,#1730,#1710,.T.);
#2160=ORIENTED_EDGE('',*,*,#2150,.F.);
#2170=ORIENTED_EDGE('',*,*,#2030,.T.);
#2180=EDGE_LOOP('',(#2170,#2160,#2140));
#2190=FACE_OUTER_BOUND('',#2180,.T.);
#2200=ADVANCED_FACE('',(#2190),#2130,.F.);
#2210=CARTESIAN_POINT('',(0.,8.5,0.));
#2220=DIRECTION('',(0.,-1.,0.));
#2230=DIRECTION('',(1.,0.,0.));
#2240=AXIS2_PLACEMENT_3D('',#2210,#2220,#2230);
#2250=CYLINDRICAL_SURFACE('',#2240,1.635);
#2260=ORIENTED_EDGE('',*,*,#1420,.F.);
#2270=ORIENTED_EDGE('',*,*,#1800,.T.);
#2280=ORIENTED_EDGE('',*,*,#2150,.T.);
#2290=ORIENTED_EDGE('',*,*,#1650,.F.);
#2300=EDGE_LOOP('',(#2290,#2280,#2270,#2260));
#2310=FACE_OUTER_BOUND('',#2300,.T.);
#2320=ADVANCED_FACE('',(#2310),#2250,.F.);
#2330=CARTESIAN_POINT('',(0.,3.5,0.));
#2340=DIRECTION('',(0.,-1.,0.));
#2350=DIRECTION('',(1.,0.,0.));
#2360=AXIS2_PLACEMENT_3D('',#2330,#2340,#2350);
#2370=CYLINDRICAL_SURFACE('',#2360,1.65);
#2380=ORIENTED_EDGE('',*,*,#1000,.F.);
#2390=ORIENTED_EDGE('',*,*,#150,.T.);
#2400=ORIENTED_EDGE('',*,*,#1150,.T.);
#2410=ORIENTED_EDGE('',*,*,#1490,.T.);
#2420=EDGE_LOOP('',(#2410,#2400,#2390,#2380));
#2430=FACE_OUTER_BOUND('',#2420,.T.);
#2440=ADVANCED_FACE('',(#2430),#2370,.F.);
#2450=COLOUR_RGB('',1.,0.,0.);
#2460=FILL_AREA_STYLE_COLOUR('',#2450);
#2470=FILL_AREA_STYLE('',(#2460));
#2480=SURFACE_STYLE_FILL_AREA(#2470);
#2490=SURFACE_SIDE_STYLE('',(#2480));
#2500=SURFACE_STYLE_USAGE(.BOTH.,#2490);
#2510=PRESENTATION_STYLE_ASSIGNMENT((#2500));
#2520=CARTESIAN_POINT('',(0.,1.57785561488762,0.));
#2530=DIRECTION('',(0.,1.,0.));
#2540=DIRECTION('',(1.,0.,0.));
#2550=AXIS2_PLACEMENT_3D('',#2520,#2530,#2540);
#2560=CYLINDRICAL_SURFACE('',#2550,4.);
#2570=EDGE_CURVE('',#470,#560,#630,.T.);
#2580=ORIENTED_EDGE('',*,*,#2570,.F.);
#2590=ORIENTED_EDGE('',*,*,#570,.T.);
#2600=ORIENTED_EDGE('',*,*,#300,.T.);
#2610=ORIENTED_EDGE('',*,*,#480,.F.);
#2620=EDGE_LOOP('',(#2610,#2600,#2590,#2580));
#2630=FACE_OUTER_BOUND('',#2620,.T.);
#2640=ADVANCED_FACE('',(#2630),#2560,.T.);
#2650=CARTESIAN_POINT('',(0.,9.5,0.));
#2660=DIRECTION('',(0.,1.,0.));
#2670=DIRECTION('',(1.,0.,0.));
#2680=AXIS2_PLACEMENT_3D('',#2650,#2660,#2670);
#2690=SPHERICAL_SURFACE('',#2680,7.5);
#2700=ORIENTED_EDGE('',*,*,#2570,.T.);
#2710=ORIENTED_EDGE('',*,*,#830,.T.);
#2720=ORIENTED_EDGE('',*,*,#810,.T.);
#2730=EDGE_LOOP('',(#2720,#2710,#2700));
#2740=FACE_OUTER_BOUND('',#2730,.T.);
#2750=ADVANCED_FACE('',(#2740),#2690,.T.);
#2760=CLOSED_SHELL('',(#360,#680,#880,#1200,#1530,#1850,#2080,#2200,
#2320,#2440,#2640,#2750));
#2770=MANIFOLD_SOLID_BREP('',#2760);
#2780=CARTESIAN_POINT('',(0.,0.,0.));
#2790=DIRECTION('',(0.,0.,1.));
#2800=DIRECTION('',(1.,0.,0.));
#2810=AXIS2_PLACEMENT_3D('',#2780,#2790,#2800);
#2820=APPLICATION_CONTEXT(' ');
#2830=APPLICATION_PROTOCOL_DEFINITION(' ','automotive_design',1998,#2820
);
#2840=PRODUCT_CONTEXT('',#2820,'mechanical');
#2850=PRODUCT_DEFINITION_CONTEXT('part definition',#2820,'design');
#2860=PRODUCT('902-15','902-15','',(#2840));
#2870=PRODUCT_RELATED_PRODUCT_CATEGORY('part',' ',(#2860));
#2880=PRODUCT_DEFINITION_FORMATION_WITH_SPECIFIED_SOURCE('','',#2860,
.BOUGHT.);
#2890=PRODUCT_DEFINITION('',' ',#2880,#2850);
#2900=PRODUCT_DEFINITION_SHAPE('','',#2890);
#2910=DIMENSIONAL_EXPONENTS(1.,0.,0.,0.,0.,0.,0.);
#2920=DIMENSIONAL_EXPONENTS(0.,0.,0.,0.,0.,0.,0.);
#2930=DIMENSIONAL_EXPONENTS(0.,0.,0.,0.,0.,0.,0.);
#2940=(LENGTH_UNIT() NAMED_UNIT(*) SI_UNIT(.MILLI.,.METRE.));
#2950=(NAMED_UNIT(*) PLANE_ANGLE_UNIT() SI_UNIT($,.RADIAN.));
#2960=(NAMED_UNIT(*) SI_UNIT($,.STERADIAN.) SOLID_ANGLE_UNIT());
#2970=(GEOMETRIC_REPRESENTATION_CONTEXT(3) 
GLOBAL_UNCERTAINTY_ASSIGNED_CONTEXT((#2980)) 
GLOBAL_UNIT_ASSIGNED_CONTEXT((#2940,#2950,#2960)) REPRESENTATION_CONTEXT
('',''));
#2980=UNCERTAINTY_MEASURE_WITH_UNIT(LENGTH_MEASURE(1.E-6),#2940,
'distance_accuracy_value','maximum gap value');
#2990=ADVANCED_BREP_SHAPE_REPRESENTATION('',(#2810,#2770),#2970);
#3000=SHAPE_DEFINITION_REPRESENTATION(#2900,#2990);
#3010=COLOUR_RGB('',0.600000023841858,0.600000023841858,
0.600000023841858);
#3020=FILL_AREA_STYLE_COLOUR('',#3010);
#3030=FILL_AREA_STYLE('',(#3020));
#3040=SURFACE_STYLE_FILL_AREA(#3030);
#3050=SURFACE_SIDE_STYLE('',(#3040));
#3060=SURFACE_STYLE_USAGE(.BOTH.,#3050);
#3070=PRESENTATION_STYLE_ASSIGNMENT((#3060));
#3080=STYLED_ITEM('',(#3070),#2770);
#3090=OVER_RIDING_STYLED_ITEM('',(#1270),#1200,#3080);
#3100=OVER_RIDING_STYLED_ITEM('',(#2510),#2440,#3080);
#3110=DRAUGHTING_MODEL('',(#3080,#3090,#3100),#2970);
ENDSEC;
END-ISO-10303-21;
