ISO-10303-21;
HEADER;
FILE_DESCRIPTION(('Creo Elements/Direct Modeling STEP Export'),'2;1');
FILE_NAME('6211-138.stp','2017-09-01T 9:50:28',(''),(''),
'Creo Elements/Direct Modeling STEP processor for AP214 (Solid Model)',
'Creo Elements/Direct Modeling 20.0  12-Nov-2016 (C) Parametric Technolo
gy GmbH','');
FILE_SCHEMA(('AUTOMOTIVE_DESIGN { 1 0 10303 214 1 1 1 1 }'));
ENDSEC;
DATA;
#10=CARTESIAN_POINT('',(0.,23.5,0.));
#20=DIRECTION('',(1.,0.,0.));
#30=DIRECTION('',(0.,0.,-1.));
#40=AXIS2_PLACEMENT_3D('',#10,#20,#30);
#50=CYLINDRICAL_SURFACE('',#40,5.);
#60=CARTESIAN_POINT('',(0.,23.5,5.));
#70=DIRECTION('',(1.,0.,0.));
#80=VECTOR('',#70,1.);
#90=LINE('',#60,#80);
#100=CARTESIAN_POINT('',(-52.,23.5,5.));
#110=VERTEX_POINT('',#100);
#120=CARTESIAN_POINT('',(52.,23.5,5.));
#130=VERTEX_POINT('',#120);
#140=EDGE_CURVE('',#110,#130,#90,.T.);
#150=ORIENTED_EDGE('',*,*,#140,.F.);
#160=CARTESIAN_POINT('',(52.,23.5,0.));
#170=DIRECTION('',(1.,0.,0.));
#180=DIRECTION('',(0.,0.,-1.));
#190=AXIS2_PLACEMENT_3D('',#160,#170,#180);
#200=CIRCLE('',#190,5.);
#210=CARTESIAN_POINT('',(52.,23.5,-5.));
#220=VERTEX_POINT('',#210);
#230=EDGE_CURVE('',#130,#220,#200,.T.);
#240=ORIENTED_EDGE('',*,*,#230,.F.);
#250=CARTESIAN_POINT('',(0.,23.5,-5.));
#260=DIRECTION('',(1.,0.,0.));
#270=VECTOR('',#260,1.);
#280=LINE('',#250,#270);
#290=CARTESIAN_POINT('',(-52.,23.5,-5.));
#300=VERTEX_POINT('',#290);
#310=EDGE_CURVE('',#300,#220,#280,.T.);
#320=ORIENTED_EDGE('',*,*,#310,.T.);
#330=CARTESIAN_POINT('',(-52.,23.5,0.));
#340=DIRECTION('',(1.,0.,0.));
#350=DIRECTION('',(0.,0.,-1.));
#360=AXIS2_PLACEMENT_3D('',#330,#340,#350);
#370=CIRCLE('',#360,5.);
#380=EDGE_CURVE('',#110,#300,#370,.T.);
#390=ORIENTED_EDGE('',*,*,#380,.T.);
#400=EDGE_LOOP('',(#390,#320,#240,#150));
#410=FACE_OUTER_BOUND('',#400,.T.);
#420=ADVANCED_FACE('',(#410),#50,.T.);
#430=CARTESIAN_POINT('',(0.,23.5,0.));
#440=DIRECTION('',(1.,0.,0.));
#450=DIRECTION('',(0.,0.,-1.));
#460=AXIS2_PLACEMENT_3D('',#430,#440,#450);
#470=CYLINDRICAL_SURFACE('',#460,5.);
#480=EDGE_CURVE('',#220,#130,#200,.T.);
#490=ORIENTED_EDGE('',*,*,#480,.F.);
#500=ORIENTED_EDGE('',*,*,#140,.T.);
#510=EDGE_CURVE('',#300,#110,#370,.T.);
#520=ORIENTED_EDGE('',*,*,#510,.T.);
#530=ORIENTED_EDGE('',*,*,#310,.F.);
#540=EDGE_LOOP('',(#530,#520,#500,#490));
#550=FACE_OUTER_BOUND('',#540,.T.);
#560=ADVANCED_FACE('',(#550),#470,.T.);
#570=CARTESIAN_POINT('',(-52.,11.5,0.));
#580=DIRECTION('',(0.,0.,1.));
#590=DIRECTION('',(0.,1.,0.));
#600=AXIS2_PLACEMENT_3D('',#570,#580,#590);
#610=TOROIDAL_SURFACE('',#600,12.,5.);
#620=CARTESIAN_POINT('',(-52.,11.5,5.));
#630=DIRECTION('',(0.,0.,1.));
#640=DIRECTION('',(0.,1.,0.));
#650=AXIS2_PLACEMENT_3D('',#620,#630,#640);
#660=CIRCLE('',#650,12.);
#670=CARTESIAN_POINT('',(-64.,11.5,5.));
#680=VERTEX_POINT('',#670);
#690=EDGE_CURVE('',#110,#680,#660,.T.);
#700=ORIENTED_EDGE('',*,*,#690,.T.);
#710=ORIENTED_EDGE('',*,*,#380,.F.);
#720=CARTESIAN_POINT('',(-52.,11.5,-5.));
#730=DIRECTION('',(0.,0.,1.));
#740=DIRECTION('',(0.,1.,0.));
#750=AXIS2_PLACEMENT_3D('',#720,#730,#740);
#760=CIRCLE('',#750,12.);
#770=CARTESIAN_POINT('',(-64.,11.5,-5.));
#780=VERTEX_POINT('',#770);
#790=EDGE_CURVE('',#300,#780,#760,.T.);
#800=ORIENTED_EDGE('',*,*,#790,.F.);
#810=CARTESIAN_POINT('',(-64.,11.5,0.));
#820=DIRECTION('',(0.,1.,0.));
#830=DIRECTION('',(0.,0.,-1.));
#840=AXIS2_PLACEMENT_3D('',#810,#820,#830);
#850=CIRCLE('',#840,5.);
#860=EDGE_CURVE('',#680,#780,#850,.T.);
#870=ORIENTED_EDGE('',*,*,#860,.T.);
#880=EDGE_LOOP('',(#870,#800,#710,#700));
#890=FACE_OUTER_BOUND('',#880,.T.);
#900=ADVANCED_FACE('',(#890),#610,.T.);
#910=CARTESIAN_POINT('',(-52.,11.5,0.));
#920=DIRECTION('',(0.,0.,1.));
#930=DIRECTION('',(0.,1.,0.));
#940=AXIS2_PLACEMENT_3D('',#910,#920,#930);
#950=TOROIDAL_SURFACE('',#940,12.,5.);
#960=ORIENTED_EDGE('',*,*,#510,.F.);
#970=ORIENTED_EDGE('',*,*,#690,.F.);
#980=EDGE_CURVE('',#780,#680,#850,.T.);
#990=ORIENTED_EDGE('',*,*,#980,.T.);
#1000=ORIENTED_EDGE('',*,*,#790,.T.);
#1010=EDGE_LOOP('',(#1000,#990,#970,#960));
#1020=FACE_OUTER_BOUND('',#1010,.T.);
#1030=ADVANCED_FACE('',(#1020),#950,.T.);
#1040=CARTESIAN_POINT('',(-40.5,0.,0.));
#1050=DIRECTION('',(0.,1.,0.));
#1060=DIRECTION('',(0.,0.,-1.));
#1070=AXIS2_PLACEMENT_3D('',#1040,#1050,#1060);
#1080=PLANE('',#1070);
#1090=CARTESIAN_POINT('',(-64.,0.,0.));
#1100=DIRECTION('',(0.,1.,0.));
#1110=DIRECTION('',(0.,0.,-1.));
#1120=AXIS2_PLACEMENT_3D('',#1090,#1100,#1110);
#1130=CIRCLE('',#1120,5.);
#1140=CARTESIAN_POINT('',(-64.,0.,-5.));
#1150=VERTEX_POINT('',#1140);
#1160=CARTESIAN_POINT('',(-64.,0.,5.));
#1170=VERTEX_POINT('',#1160);
#1180=EDGE_CURVE('',#1150,#1170,#1130,.T.);
#1190=ORIENTED_EDGE('',*,*,#1180,.F.);
#1200=EDGE_CURVE('',#1170,#1150,#1130,.T.);
#1210=ORIENTED_EDGE('',*,*,#1200,.F.);
#1220=EDGE_LOOP('',(#1210,#1190));
#1230=FACE_OUTER_BOUND('',#1220,.T.);
#1240=CARTESIAN_POINT('',(-64.,0.,0.));
#1250=DIRECTION('',(-0.,-1.,0.));
#1260=DIRECTION('',(1.,0.,0.));
#1270=AXIS2_PLACEMENT_3D('',#1240,#1250,#1260);
#1280=CIRCLE('',#1270,1.65);
#1290=CARTESIAN_POINT('',(-62.35,0.,0.));
#1300=VERTEX_POINT('',#1290);
#1310=CARTESIAN_POINT('',(-65.65,0.,2.02066721859313E-16));
#1320=VERTEX_POINT('',#1310);
#1330=EDGE_CURVE('',#1300,#1320,#1280,.T.);
#1340=ORIENTED_EDGE('',*,*,#1330,.F.);
#1350=EDGE_CURVE('',#1320,#1300,#1280,.T.);
#1360=ORIENTED_EDGE('',*,*,#1350,.F.);
#1370=EDGE_LOOP('',(#1360,#1340));
#1380=FACE_BOUND('',#1370,.T.);
#1390=ADVANCED_FACE('',(#1230,#1380),#1080,.F.);
#1400=CARTESIAN_POINT('',(-64.,3.5,0.));
#1410=DIRECTION('',(-0.,-1.,0.));
#1420=DIRECTION('',(1.,0.,0.));
#1430=AXIS2_PLACEMENT_3D('',#1400,#1410,#1420);
#1440=CYLINDRICAL_SURFACE('',#1430,1.65);
#1450=CARTESIAN_POINT('',(-65.65,3.5,2.02066721859313E-16));
#1460=DIRECTION('',(-0.,-1.,0.));
#1470=VECTOR('',#1460,1.);
#1480=LINE('',#1450,#1470);
#1490=CARTESIAN_POINT('',(-65.65,7.,2.02066721859313E-16));
#1500=VERTEX_POINT('',#1490);
#1510=EDGE_CURVE('',#1500,#1320,#1480,.T.);
#1520=ORIENTED_EDGE('',*,*,#1510,.T.);
#1530=CARTESIAN_POINT('',(-64.,7.,0.));
#1540=DIRECTION('',(0.,1.,0.));
#1550=DIRECTION('',(1.,0.,0.));
#1560=AXIS2_PLACEMENT_3D('',#1530,#1540,#1550);
#1570=CIRCLE('',#1560,1.65);
#1580=CARTESIAN_POINT('',(-62.35,7.,0.));
#1590=VERTEX_POINT('',#1580);
#1600=EDGE_CURVE('',#1590,#1500,#1570,.T.);
#1610=ORIENTED_EDGE('',*,*,#1600,.T.);
#1620=CARTESIAN_POINT('',(-62.35,3.5,0.));
#1630=DIRECTION('',(-0.,-1.,0.));
#1640=VECTOR('',#1630,1.);
#1650=LINE('',#1620,#1640);
#1660=EDGE_CURVE('',#1590,#1300,#1650,.T.);
#1670=ORIENTED_EDGE('',*,*,#1660,.F.);
#1680=ORIENTED_EDGE('',*,*,#1350,.T.);
#1690=EDGE_LOOP('',(#1680,#1670,#1610,#1520));
#1700=FACE_OUTER_BOUND('',#1690,.T.);
#1710=ADVANCED_FACE('M4_873027',(#1700),#1440,.F.);
#1720=COLOUR_RGB('',1.,0.,0.);
#1730=FILL_AREA_STYLE_COLOUR('',#1720);
#1740=FILL_AREA_STYLE('',(#1730));
#1750=SURFACE_STYLE_FILL_AREA(#1740);
#1760=SURFACE_SIDE_STYLE('',(#1750));
#1770=SURFACE_STYLE_USAGE(.BOTH.,#1760);
#1780=PRESENTATION_STYLE_ASSIGNMENT((#1770));
#1790=CARTESIAN_POINT('',(-62.3575,7.,0.));
#1800=DIRECTION('',(0.,-1.,0.));
#1810=DIRECTION('',(1.,0.,0.));
#1820=AXIS2_PLACEMENT_3D('',#1790,#1800,#1810);
#1830=PLANE('',#1820);
#1840=ORIENTED_EDGE('',*,*,#1600,.F.);
#1850=EDGE_CURVE('',#1500,#1590,#1570,.T.);
#1860=ORIENTED_EDGE('',*,*,#1850,.F.);
#1870=EDGE_LOOP('',(#1860,#1840));
#1880=FACE_OUTER_BOUND('',#1870,.T.);
#1890=CARTESIAN_POINT('',(-64.,7.,0.));
#1900=DIRECTION('',(0.,1.,0.));
#1910=DIRECTION('',(1.,0.,0.));
#1920=AXIS2_PLACEMENT_3D('',#1890,#1900,#1910);
#1930=CIRCLE('',#1920,1.635);
#1940=CARTESIAN_POINT('',(-62.365,7.,0.));
#1950=VERTEX_POINT('',#1940);
#1960=CARTESIAN_POINT('',(-65.635,7.,2.00229751660592E-16));
#1970=VERTEX_POINT('',#1960);
#1980=EDGE_CURVE('',#1950,#1970,#1930,.T.);
#1990=ORIENTED_EDGE('',*,*,#1980,.T.);
#2000=EDGE_CURVE('',#1970,#1950,#1930,.T.);
#2010=ORIENTED_EDGE('',*,*,#2000,.T.);
#2020=EDGE_LOOP('',(#2010,#1990));
#2030=FACE_BOUND('',#2020,.T.);
#2040=ADVANCED_FACE('',(#1880,#2030),#1830,.T.);
#2050=CARTESIAN_POINT('',(-64.,8.,0.));
#2060=DIRECTION('',(-0.,-1.,0.));
#2070=DIRECTION('',(1.,0.,0.));
#2080=AXIS2_PLACEMENT_3D('',#2050,#2060,#2070);
#2090=CYLINDRICAL_SURFACE('',#2080,1.635);
#2100=CARTESIAN_POINT('',(-62.365,8.,0.));
#2110=DIRECTION('',(-0.,-1.,0.));
#2120=VECTOR('',#2110,1.);
#2130=LINE('',#2100,#2120);
#2140=CARTESIAN_POINT('',(-62.365,9.,0.));
#2150=VERTEX_POINT('',#2140);
#2160=EDGE_CURVE('',#2150,#1950,#2130,.T.);
#2170=ORIENTED_EDGE('',*,*,#2160,.T.);
#2180=CARTESIAN_POINT('',(-64.,9.,0.));
#2190=DIRECTION('',(0.,1.,0.));
#2200=DIRECTION('',(1.,0.,0.));
#2210=AXIS2_PLACEMENT_3D('',#2180,#2190,#2200);
#2220=CIRCLE('',#2210,1.635);
#2230=CARTESIAN_POINT('',(-65.635,9.,2.00229751660592E-16));
#2240=VERTEX_POINT('',#2230);
#2250=EDGE_CURVE('',#2240,#2150,#2220,.T.);
#2260=ORIENTED_EDGE('',*,*,#2250,.T.);
#2270=CARTESIAN_POINT('',(-65.635,8.,2.00229751660592E-16));
#2280=DIRECTION('',(-0.,-1.,0.));
#2290=VECTOR('',#2280,1.);
#2300=LINE('',#2270,#2290);
#2310=EDGE_CURVE('',#2240,#1970,#2300,.T.);
#2320=ORIENTED_EDGE('',*,*,#2310,.F.);
#2330=ORIENTED_EDGE('',*,*,#2000,.F.);
#2340=EDGE_LOOP('',(#2330,#2320,#2260,#2170));
#2350=FACE_OUTER_BOUND('',#2340,.T.);
#2360=ADVANCED_FACE('',(#2350),#2090,.F.);
#2370=CARTESIAN_POINT('',(-64.,9.,0.));
#2380=DIRECTION('',(0.,-1.,0.));
#2390=DIRECTION('',(1.,0.,0.));
#2400=AXIS2_PLACEMENT_3D('',#2370,#2380,#2390);
#2410=CONICAL_SURFACE('',#2400,1.635,1.02974425867666);
#2420=CARTESIAN_POINT('',(-62.365,9.,0.));
#2430=DIRECTION('',(0.857167300702112,-0.515038074910054,0.));
#2440=VECTOR('',#2430,1.90744560444706);
#2450=LINE('',#2420,#2440);
#2460=CARTESIAN_POINT('',(-64.,9.98240711211006,2.46519032881566E-32));
#2470=VERTEX_POINT('',#2460);
#2480=EDGE_CURVE('',#2470,#2150,#2450,.T.);
#2490=ORIENTED_EDGE('',*,*,#2480,.T.);
#2500=CARTESIAN_POINT('',(-65.635,9.,2.00229751660592E-16));
#2510=DIRECTION('',(-0.857167300702113,-0.515038074910053,
1.04972719113862E-16));
#2520=VECTOR('',#2510,1.90744560444707);
#2530=LINE('',#2500,#2520);
#2540=EDGE_CURVE('',#2470,#2240,#2530,.T.);
#2550=ORIENTED_EDGE('',*,*,#2540,.F.);
#2560=ORIENTED_EDGE('',*,*,#2250,.F.);
#2570=EDGE_LOOP('',(#2560,#2550,#2490));
#2580=FACE_OUTER_BOUND('',#2570,.T.);
#2590=ADVANCED_FACE('',(#2580),#2410,.F.);
#2600=CARTESIAN_POINT('',(-64.,9.,0.));
#2610=DIRECTION('',(0.,-1.,0.));
#2620=DIRECTION('',(1.,0.,0.));
#2630=AXIS2_PLACEMENT_3D('',#2600,#2610,#2620);
#2640=CONICAL_SURFACE('',#2630,1.635,1.02974425867666);
#2650=ORIENTED_EDGE('',*,*,#2480,.F.);
#2660=EDGE_CURVE('',#2150,#2240,#2220,.T.);
#2670=ORIENTED_EDGE('',*,*,#2660,.F.);
#2680=ORIENTED_EDGE('',*,*,#2540,.T.);
#2690=EDGE_LOOP('',(#2680,#2670,#2650));
#2700=FACE_OUTER_BOUND('',#2690,.T.);
#2710=ADVANCED_FACE('',(#2700),#2640,.F.);
#2720=CARTESIAN_POINT('',(-64.,3.5,0.));
#2730=DIRECTION('',(-0.,-1.,0.));
#2740=DIRECTION('',(1.,0.,0.));
#2750=AXIS2_PLACEMENT_3D('',#2720,#2730,#2740);
#2760=CYLINDRICAL_SURFACE('',#2750,1.65);
#2770=ORIENTED_EDGE('',*,*,#1510,.F.);
#2780=ORIENTED_EDGE('',*,*,#1330,.T.);
#2790=ORIENTED_EDGE('',*,*,#1660,.T.);
#2800=ORIENTED_EDGE('',*,*,#1850,.T.);
#2810=EDGE_LOOP('',(#2800,#2790,#2780,#2770));
#2820=FACE_OUTER_BOUND('',#2810,.T.);
#2830=ADVANCED_FACE('',(#2820),#2760,.F.);
#2840=COLOUR_RGB('',1.,0.,0.);
#2850=FILL_AREA_STYLE_COLOUR('',#2840);
#2860=FILL_AREA_STYLE('',(#2850));
#2870=SURFACE_STYLE_FILL_AREA(#2860);
#2880=SURFACE_SIDE_STYLE('',(#2870));
#2890=SURFACE_STYLE_USAGE(.BOTH.,#2880);
#2900=PRESENTATION_STYLE_ASSIGNMENT((#2890));
#2910=CARTESIAN_POINT('',(-64.,8.,0.));
#2920=DIRECTION('',(-0.,-1.,0.));
#2930=DIRECTION('',(1.,0.,0.));
#2940=AXIS2_PLACEMENT_3D('',#2910,#2920,#2930);
#2950=CYLINDRICAL_SURFACE('',#2940,1.635);
#2960=ORIENTED_EDGE('',*,*,#1980,.F.);
#2970=ORIENTED_EDGE('',*,*,#2310,.T.);
#2980=ORIENTED_EDGE('',*,*,#2660,.T.);
#2990=ORIENTED_EDGE('',*,*,#2160,.F.);
#3000=EDGE_LOOP('',(#2990,#2980,#2970,#2960));
#3010=FACE_OUTER_BOUND('',#3000,.T.);
#3020=ADVANCED_FACE('',(#3010),#2950,.F.);
#3030=CARTESIAN_POINT('',(-64.,11.5,0.));
#3040=DIRECTION('',(0.,1.,0.));
#3050=DIRECTION('',(0.,0.,-1.));
#3060=AXIS2_PLACEMENT_3D('',#3030,#3040,#3050);
#3070=CYLINDRICAL_SURFACE('',#3060,5.);
#3080=CARTESIAN_POINT('',(-64.,11.5,5.));
#3090=DIRECTION('',(0.,1.,0.));
#3100=VECTOR('',#3090,1.);
#3110=LINE('',#3080,#3100);
#3120=EDGE_CURVE('',#1170,#680,#3110,.T.);
#3130=ORIENTED_EDGE('',*,*,#3120,.F.);
#3140=ORIENTED_EDGE('',*,*,#860,.F.);
#3150=CARTESIAN_POINT('',(-64.,11.5,-5.));
#3160=DIRECTION('',(0.,1.,0.));
#3170=VECTOR('',#3160,1.);
#3180=LINE('',#3150,#3170);
#3190=EDGE_CURVE('',#1150,#780,#3180,.T.);
#3200=ORIENTED_EDGE('',*,*,#3190,.T.);
#3210=ORIENTED_EDGE('',*,*,#1200,.T.);
#3220=EDGE_LOOP('',(#3210,#3200,#3140,#3130));
#3230=FACE_OUTER_BOUND('',#3220,.T.);
#3240=ADVANCED_FACE('',(#3230),#3070,.T.);
#3250=CARTESIAN_POINT('',(-64.,11.5,0.));
#3260=DIRECTION('',(0.,1.,0.));
#3270=DIRECTION('',(0.,0.,-1.));
#3280=AXIS2_PLACEMENT_3D('',#3250,#3260,#3270);
#3290=CYLINDRICAL_SURFACE('',#3280,5.);
#3300=ORIENTED_EDGE('',*,*,#980,.F.);
#3310=ORIENTED_EDGE('',*,*,#3120,.T.);
#3320=ORIENTED_EDGE('',*,*,#1180,.T.);
#3330=ORIENTED_EDGE('',*,*,#3190,.F.);
#3340=EDGE_LOOP('',(#3330,#3320,#3310,#3300));
#3350=FACE_OUTER_BOUND('',#3340,.T.);
#3360=ADVANCED_FACE('',(#3350),#3290,.T.);
#3370=CARTESIAN_POINT('',(64.,11.5,0.));
#3380=DIRECTION('',(0.,-1.,0.));
#3390=DIRECTION('',(0.,0.,-1.));
#3400=AXIS2_PLACEMENT_3D('',#3370,#3380,#3390);
#3410=CYLINDRICAL_SURFACE('',#3400,5.);
#3420=CARTESIAN_POINT('',(64.,11.5,-5.));
#3430=DIRECTION('',(0.,-1.,0.));
#3440=VECTOR('',#3430,1.);
#3450=LINE('',#3420,#3440);
#3460=CARTESIAN_POINT('',(64.,11.5,-5.));
#3470=VERTEX_POINT('',#3460);
#3480=CARTESIAN_POINT('',(64.,0.,-5.));
#3490=VERTEX_POINT('',#3480);
#3500=EDGE_CURVE('',#3470,#3490,#3450,.T.);
#3510=ORIENTED_EDGE('',*,*,#3500,.T.);
#3520=CARTESIAN_POINT('',(64.,11.5,0.));
#3530=DIRECTION('',(0.,-1.,0.));
#3540=DIRECTION('',(0.,0.,-1.));
#3550=AXIS2_PLACEMENT_3D('',#3520,#3530,#3540);
#3560=CIRCLE('',#3550,5.);
#3570=CARTESIAN_POINT('',(64.,11.5,5.));
#3580=VERTEX_POINT('',#3570);
#3590=EDGE_CURVE('',#3580,#3470,#3560,.T.);
#3600=ORIENTED_EDGE('',*,*,#3590,.T.);
#3610=CARTESIAN_POINT('',(64.,11.5,5.));
#3620=DIRECTION('',(0.,-1.,0.));
#3630=VECTOR('',#3620,1.);
#3640=LINE('',#3610,#3630);
#3650=CARTESIAN_POINT('',(64.,0.,5.));
#3660=VERTEX_POINT('',#3650);
#3670=EDGE_CURVE('',#3580,#3660,#3640,.T.);
#3680=ORIENTED_EDGE('',*,*,#3670,.F.);
#3690=CARTESIAN_POINT('',(64.,0.,0.));
#3700=DIRECTION('',(0.,-1.,0.));
#3710=DIRECTION('',(0.,0.,-1.));
#3720=AXIS2_PLACEMENT_3D('',#3690,#3700,#3710);
#3730=CIRCLE('',#3720,5.);
#3740=EDGE_CURVE('',#3660,#3490,#3730,.T.);
#3750=ORIENTED_EDGE('',*,*,#3740,.F.);
#3760=EDGE_LOOP('',(#3750,#3680,#3600,#3510));
#3770=FACE_OUTER_BOUND('',#3760,.T.);
#3780=ADVANCED_FACE('',(#3770),#3410,.T.);
#3790=CARTESIAN_POINT('',(64.,11.5,0.));
#3800=DIRECTION('',(0.,-1.,0.));
#3810=DIRECTION('',(0.,0.,-1.));
#3820=AXIS2_PLACEMENT_3D('',#3790,#3800,#3810);
#3830=CYLINDRICAL_SURFACE('',#3820,5.);
#3840=EDGE_CURVE('',#3490,#3660,#3730,.T.);
#3850=ORIENTED_EDGE('',*,*,#3840,.F.);
#3860=ORIENTED_EDGE('',*,*,#3670,.T.);
#3870=EDGE_CURVE('',#3470,#3580,#3560,.T.);
#3880=ORIENTED_EDGE('',*,*,#3870,.T.);
#3890=ORIENTED_EDGE('',*,*,#3500,.F.);
#3900=EDGE_LOOP('',(#3890,#3880,#3860,#3850));
#3910=FACE_OUTER_BOUND('',#3900,.T.);
#3920=ADVANCED_FACE('',(#3910),#3830,.T.);
#3930=CARTESIAN_POINT('',(52.,11.5,0.));
#3940=DIRECTION('',(0.,0.,-1.));
#3950=DIRECTION('',(0.,1.,0.));
#3960=AXIS2_PLACEMENT_3D('',#3930,#3940,#3950);
#3970=TOROIDAL_SURFACE('',#3960,12.,5.);
#3980=CARTESIAN_POINT('',(52.,11.5,-5.));
#3990=DIRECTION('',(0.,0.,-1.));
#4000=DIRECTION('',(0.,1.,0.));
#4010=AXIS2_PLACEMENT_3D('',#3980,#3990,#4000);
#4020=CIRCLE('',#4010,12.);
#4030=EDGE_CURVE('',#220,#3470,#4020,.T.);
#4040=ORIENTED_EDGE('',*,*,#4030,.T.);
#4050=ORIENTED_EDGE('',*,*,#230,.T.);
#4060=CARTESIAN_POINT('',(52.,11.5,5.));
#4070=DIRECTION('',(0.,0.,-1.));
#4080=DIRECTION('',(0.,1.,0.));
#4090=AXIS2_PLACEMENT_3D('',#4060,#4070,#4080);
#4100=CIRCLE('',#4090,12.);
#4110=EDGE_CURVE('',#130,#3580,#4100,.T.);
#4120=ORIENTED_EDGE('',*,*,#4110,.F.);
#4130=ORIENTED_EDGE('',*,*,#3590,.F.);
#4140=EDGE_LOOP('',(#4130,#4120,#4050,#4040));
#4150=FACE_OUTER_BOUND('',#4140,.T.);
#4160=ADVANCED_FACE('',(#4150),#3970,.T.);
#4170=CARTESIAN_POINT('',(52.,11.5,0.));
#4180=DIRECTION('',(0.,0.,-1.));
#4190=DIRECTION('',(0.,1.,0.));
#4200=AXIS2_PLACEMENT_3D('',#4170,#4180,#4190);
#4210=TOROIDAL_SURFACE('',#4200,12.,5.);
#4220=ORIENTED_EDGE('',*,*,#3870,.F.);
#4230=ORIENTED_EDGE('',*,*,#4110,.T.);
#4240=ORIENTED_EDGE('',*,*,#480,.T.);
#4250=ORIENTED_EDGE('',*,*,#4030,.F.);
#4260=EDGE_LOOP('',(#4250,#4240,#4230,#4220));
#4270=FACE_OUTER_BOUND('',#4260,.T.);
#4280=ADVANCED_FACE('',(#4270),#4210,.T.);
#4290=CARTESIAN_POINT('',(40.5,0.,0.));
#4300=DIRECTION('',(0.,-1.,0.));
#4310=DIRECTION('',(0.,0.,-1.));
#4320=AXIS2_PLACEMENT_3D('',#4290,#4300,#4310);
#4330=PLANE('',#4320);
#4340=ORIENTED_EDGE('',*,*,#3840,.T.);
#4350=ORIENTED_EDGE('',*,*,#3740,.T.);
#4360=EDGE_LOOP('',(#4350,#4340));
#4370=FACE_OUTER_BOUND('',#4360,.T.);
#4380=CARTESIAN_POINT('',(64.,0.,0.));
#4390=DIRECTION('',(-0.,-1.,0.));
#4400=DIRECTION('',(1.,0.,0.));
#4410=AXIS2_PLACEMENT_3D('',#4380,#4390,#4400);
#4420=CIRCLE('',#4410,1.65);
#4430=CARTESIAN_POINT('',(65.65,0.,0.));
#4440=VERTEX_POINT('',#4430);
#4450=CARTESIAN_POINT('',(62.35,0.,2.02066721859313E-16));
#4460=VERTEX_POINT('',#4450);
#4470=EDGE_CURVE('',#4440,#4460,#4420,.T.);
#4480=ORIENTED_EDGE('',*,*,#4470,.F.);
#4490=EDGE_CURVE('',#4460,#4440,#4420,.T.);
#4500=ORIENTED_EDGE('',*,*,#4490,.F.);
#4510=EDGE_LOOP('',(#4500,#4480));
#4520=FACE_BOUND('',#4510,.T.);
#4530=ADVANCED_FACE('',(#4370,#4520),#4330,.T.);
#4540=CARTESIAN_POINT('',(64.,3.5,0.));
#4550=DIRECTION('',(-0.,-1.,0.));
#4560=DIRECTION('',(1.,0.,0.));
#4570=AXIS2_PLACEMENT_3D('',#4540,#4550,#4560);
#4580=CYLINDRICAL_SURFACE('',#4570,1.65);
#4590=CARTESIAN_POINT('',(62.35,3.5,2.02066721859313E-16));
#4600=DIRECTION('',(-0.,-1.,0.));
#4610=VECTOR('',#4600,1.);
#4620=LINE('',#4590,#4610);
#4630=CARTESIAN_POINT('',(62.35,7.,2.02066721859313E-16));
#4640=VERTEX_POINT('',#4630);
#4650=EDGE_CURVE('',#4640,#4460,#4620,.T.);
#4660=ORIENTED_EDGE('',*,*,#4650,.T.);
#4670=CARTESIAN_POINT('',(64.,7.,0.));
#4680=DIRECTION('',(0.,1.,0.));
#4690=DIRECTION('',(1.,0.,0.));
#4700=AXIS2_PLACEMENT_3D('',#4670,#4680,#4690);
#4710=CIRCLE('',#4700,1.65);
#4720=CARTESIAN_POINT('',(65.65,7.,0.));
#4730=VERTEX_POINT('',#4720);
#4740=EDGE_CURVE('',#4730,#4640,#4710,.T.);
#4750=ORIENTED_EDGE('',*,*,#4740,.T.);
#4760=CARTESIAN_POINT('',(65.65,3.5,0.));
#4770=DIRECTION('',(-0.,-1.,0.));
#4780=VECTOR('',#4770,1.);
#4790=LINE('',#4760,#4780);
#4800=EDGE_CURVE('',#4730,#4440,#4790,.T.);
#4810=ORIENTED_EDGE('',*,*,#4800,.F.);
#4820=ORIENTED_EDGE('',*,*,#4490,.T.);
#4830=EDGE_LOOP('',(#4820,#4810,#4750,#4660));
#4840=FACE_OUTER_BOUND('',#4830,.T.);
#4850=ADVANCED_FACE('M4_871680',(#4840),#4580,.F.);
#4860=COLOUR_RGB('',1.,0.,0.);
#4870=FILL_AREA_STYLE_COLOUR('',#4860);
#4880=FILL_AREA_STYLE('',(#4870));
#4890=SURFACE_STYLE_FILL_AREA(#4880);
#4900=SURFACE_SIDE_STYLE('',(#4890));
#4910=SURFACE_STYLE_USAGE(.BOTH.,#4900);
#4920=PRESENTATION_STYLE_ASSIGNMENT((#4910));
#4930=CARTESIAN_POINT('',(65.6425,7.,0.));
#4940=DIRECTION('',(0.,-1.,0.));
#4950=DIRECTION('',(1.,0.,0.));
#4960=AXIS2_PLACEMENT_3D('',#4930,#4940,#4950);
#4970=PLANE('',#4960);
#4980=ORIENTED_EDGE('',*,*,#4740,.F.);
#4990=EDGE_CURVE('',#4640,#4730,#4710,.T.);
#5000=ORIENTED_EDGE('',*,*,#4990,.F.);
#5010=EDGE_LOOP('',(#5000,#4980));
#5020=FACE_OUTER_BOUND('',#5010,.T.);
#5030=CARTESIAN_POINT('',(64.,7.,0.));
#5040=DIRECTION('',(0.,1.,0.));
#5050=DIRECTION('',(1.,0.,0.));
#5060=AXIS2_PLACEMENT_3D('',#5030,#5040,#5050);
#5070=CIRCLE('',#5060,1.635);
#5080=CARTESIAN_POINT('',(65.635,7.,0.));
#5090=VERTEX_POINT('',#5080);
#5100=CARTESIAN_POINT('',(62.365,7.,2.00229751660592E-16));
#5110=VERTEX_POINT('',#5100);
#5120=EDGE_CURVE('',#5090,#5110,#5070,.T.);
#5130=ORIENTED_EDGE('',*,*,#5120,.T.);
#5140=EDGE_CURVE('',#5110,#5090,#5070,.T.);
#5150=ORIENTED_EDGE('',*,*,#5140,.T.);
#5160=EDGE_LOOP('',(#5150,#5130));
#5170=FACE_BOUND('',#5160,.T.);
#5180=ADVANCED_FACE('',(#5020,#5170),#4970,.T.);
#5190=CARTESIAN_POINT('',(64.,8.,0.));
#5200=DIRECTION('',(-0.,-1.,0.));
#5210=DIRECTION('',(1.,0.,0.));
#5220=AXIS2_PLACEMENT_3D('',#5190,#5200,#5210);
#5230=CYLINDRICAL_SURFACE('',#5220,1.635);
#5240=CARTESIAN_POINT('',(65.635,8.,0.));
#5250=DIRECTION('',(-0.,-1.,0.));
#5260=VECTOR('',#5250,1.);
#5270=LINE('',#5240,#5260);
#5280=CARTESIAN_POINT('',(65.635,9.,0.));
#5290=VERTEX_POINT('',#5280);
#5300=EDGE_CURVE('',#5290,#5090,#5270,.T.);
#5310=ORIENTED_EDGE('',*,*,#5300,.T.);
#5320=CARTESIAN_POINT('',(64.,9.,0.));
#5330=DIRECTION('',(0.,1.,0.));
#5340=DIRECTION('',(1.,0.,0.));
#5350=AXIS2_PLACEMENT_3D('',#5320,#5330,#5340);
#5360=CIRCLE('',#5350,1.635);
#5370=CARTESIAN_POINT('',(62.365,9.,2.00229751660592E-16));
#5380=VERTEX_POINT('',#5370);
#5390=EDGE_CURVE('',#5380,#5290,#5360,.T.);
#5400=ORIENTED_EDGE('',*,*,#5390,.T.);
#5410=CARTESIAN_POINT('',(62.365,8.,2.00229751660592E-16));
#5420=DIRECTION('',(-0.,-1.,0.));
#5430=VECTOR('',#5420,1.);
#5440=LINE('',#5410,#5430);
#5450=EDGE_CURVE('',#5380,#5110,#5440,.T.);
#5460=ORIENTED_EDGE('',*,*,#5450,.F.);
#5470=ORIENTED_EDGE('',*,*,#5140,.F.);
#5480=EDGE_LOOP('',(#5470,#5460,#5400,#5310));
#5490=FACE_OUTER_BOUND('',#5480,.T.);
#5500=ADVANCED_FACE('',(#5490),#5230,.F.);
#5510=CARTESIAN_POINT('',(64.,9.,0.));
#5520=DIRECTION('',(0.,-1.,0.));
#5530=DIRECTION('',(1.,0.,0.));
#5540=AXIS2_PLACEMENT_3D('',#5510,#5520,#5530);
#5550=CONICAL_SURFACE('',#5540,1.635,1.02974425867666);
#5560=CARTESIAN_POINT('',(65.635,9.,0.));
#5570=DIRECTION('',(0.857167300702113,-0.515038074910053,0.));
#5580=VECTOR('',#5570,1.90744560444707);
#5590=LINE('',#5560,#5580);
#5600=CARTESIAN_POINT('',(64.,9.98240711211006,-2.46519032881566E-32));
#5610=VERTEX_POINT('',#5600);
#5620=EDGE_CURVE('',#5610,#5290,#5590,.T.);
#5630=ORIENTED_EDGE('',*,*,#5620,.T.);
#5640=CARTESIAN_POINT('',(62.365,9.,2.00229751660592E-16));
#5650=DIRECTION('',(-0.857167300702112,-0.515038074910054,
1.04972719113862E-16));
#5660=VECTOR('',#5650,1.90744560444706);
#5670=LINE('',#5640,#5660);
#5680=EDGE_CURVE('',#5610,#5380,#5670,.T.);
#5690=ORIENTED_EDGE('',*,*,#5680,.F.);
#5700=ORIENTED_EDGE('',*,*,#5390,.F.);
#5710=EDGE_LOOP('',(#5700,#5690,#5630));
#5720=FACE_OUTER_BOUND('',#5710,.T.);
#5730=ADVANCED_FACE('',(#5720),#5550,.F.);
#5740=CARTESIAN_POINT('',(64.,9.,0.));
#5750=DIRECTION('',(0.,-1.,0.));
#5760=DIRECTION('',(1.,0.,0.));
#5770=AXIS2_PLACEMENT_3D('',#5740,#5750,#5760);
#5780=CONICAL_SURFACE('',#5770,1.635,1.02974425867666);
#5790=ORIENTED_EDGE('',*,*,#5620,.F.);
#5800=EDGE_CURVE('',#5290,#5380,#5360,.T.);
#5810=ORIENTED_EDGE('',*,*,#5800,.F.);
#5820=ORIENTED_EDGE('',*,*,#5680,.T.);
#5830=EDGE_LOOP('',(#5820,#5810,#5790));
#5840=FACE_OUTER_BOUND('',#5830,.T.);
#5850=ADVANCED_FACE('',(#5840),#5780,.F.);
#5860=CARTESIAN_POINT('',(64.,3.5,0.));
#5870=DIRECTION('',(-0.,-1.,0.));
#5880=DIRECTION('',(1.,0.,0.));
#5890=AXIS2_PLACEMENT_3D('',#5860,#5870,#5880);
#5900=CYLINDRICAL_SURFACE('',#5890,1.65);
#5910=ORIENTED_EDGE('',*,*,#4650,.F.);
#5920=ORIENTED_EDGE('',*,*,#4470,.T.);
#5930=ORIENTED_EDGE('',*,*,#4800,.T.);
#5940=ORIENTED_EDGE('',*,*,#4990,.T.);
#5950=EDGE_LOOP('',(#5940,#5930,#5920,#5910));
#5960=FACE_OUTER_BOUND('',#5950,.T.);
#5970=ADVANCED_FACE('',(#5960),#5900,.F.);
#5980=COLOUR_RGB('',1.,0.,0.);
#5990=FILL_AREA_STYLE_COLOUR('',#5980);
#6000=FILL_AREA_STYLE('',(#5990));
#6010=SURFACE_STYLE_FILL_AREA(#6000);
#6020=SURFACE_SIDE_STYLE('',(#6010));
#6030=SURFACE_STYLE_USAGE(.BOTH.,#6020);
#6040=PRESENTATION_STYLE_ASSIGNMENT((#6030));
#6050=CARTESIAN_POINT('',(64.,8.,0.));
#6060=DIRECTION('',(-0.,-1.,0.));
#6070=DIRECTION('',(1.,0.,0.));
#6080=AXIS2_PLACEMENT_3D('',#6050,#6060,#6070);
#6090=CYLINDRICAL_SURFACE('',#6080,1.635);
#6100=ORIENTED_EDGE('',*,*,#5120,.F.);
#6110=ORIENTED_EDGE('',*,*,#5450,.T.);
#6120=ORIENTED_EDGE('',*,*,#5800,.T.);
#6130=ORIENTED_EDGE('',*,*,#5300,.F.);
#6140=EDGE_LOOP('',(#6130,#6120,#6110,#6100));
#6150=FACE_OUTER_BOUND('',#6140,.T.);
#6160=ADVANCED_FACE('',(#6150),#6090,.F.);
#6170=CLOSED_SHELL('',(#420,#560,#900,#1030,#1390,#1710,#2040,#2360,
#2590,#2710,#2830,#3020,#3240,#3360,#3780,#3920,#4160,#4280,#4530,#4850,
#5180,#5500,#5730,#5850,#5970,#6160));
#6180=MANIFOLD_SOLID_BREP('',#6170);
#6190=CARTESIAN_POINT('',(0.,0.,0.));
#6200=DIRECTION('',(0.,0.,1.));
#6210=DIRECTION('',(1.,0.,0.));
#6220=AXIS2_PLACEMENT_3D('',#6190,#6200,#6210);
#6230=APPLICATION_CONTEXT(' ');
#6240=APPLICATION_PROTOCOL_DEFINITION(' ','automotive_design',1998,#6230
);
#6250=PRODUCT_CONTEXT('',#6230,'mechanical');
#6260=PRODUCT_DEFINITION_CONTEXT('part definition',#6230,'design');
#6270=PRODUCT('ZN-2408','ZN-2408','',(#6250));
#6280=PRODUCT_RELATED_PRODUCT_CATEGORY('part',' ',(#6270));
#6290=PRODUCT_DEFINITION_FORMATION_WITH_SPECIFIED_SOURCE('','',#6270,
.BOUGHT.);
#6300=PRODUCT_DEFINITION('',' ',#6290,#6260);
#6310=PRODUCT_DEFINITION_SHAPE('','',#6300);
#6320=DIMENSIONAL_EXPONENTS(1.,0.,0.,0.,0.,0.,0.);
#6330=DIMENSIONAL_EXPONENTS(0.,0.,0.,0.,0.,0.,0.);
#6340=DIMENSIONAL_EXPONENTS(0.,0.,0.,0.,0.,0.,0.);
#6350=(LENGTH_UNIT() NAMED_UNIT(*) SI_UNIT(.MILLI.,.METRE.));
#6360=(NAMED_UNIT(*) PLANE_ANGLE_UNIT() SI_UNIT($,.RADIAN.));
#6370=(NAMED_UNIT(*) SI_UNIT($,.STERADIAN.) SOLID_ANGLE_UNIT());
#6380=(GEOMETRIC_REPRESENTATION_CONTEXT(3) 
GLOBAL_UNCERTAINTY_ASSIGNED_CONTEXT((#6390)) 
GLOBAL_UNIT_ASSIGNED_CONTEXT((#6350,#6360,#6370)) REPRESENTATION_CONTEXT
('',''));
#6390=UNCERTAINTY_MEASURE_WITH_UNIT(LENGTH_MEASURE(1.E-6),#6350,
'distance_accuracy_value','maximum gap value');
#6400=ADVANCED_BREP_SHAPE_REPRESENTATION('',(#6220,#6180),#6380);
#6410=SHAPE_DEFINITION_REPRESENTATION(#6310,#6400);
#6420=COLOUR_RGB('',0.600000023841858,0.600000023841858,
0.600000023841858);
#6430=FILL_AREA_STYLE_COLOUR('',#6420);
#6440=FILL_AREA_STYLE('',(#6430));
#6450=SURFACE_STYLE_FILL_AREA(#6440);
#6460=SURFACE_SIDE_STYLE('',(#6450));
#6470=SURFACE_STYLE_USAGE(.BOTH.,#6460);
#6480=PRESENTATION_STYLE_ASSIGNMENT((#6470));
#6490=STYLED_ITEM('',(#6480),#6180);
#6500=OVER_RIDING_STYLED_ITEM('',(#1780),#1710,#6490);
#6510=OVER_RIDING_STYLED_ITEM('',(#2900),#2830,#6490);
#6520=OVER_RIDING_STYLED_ITEM('',(#4920),#4850,#6490);
#6530=OVER_RIDING_STYLED_ITEM('',(#6040),#5970,#6490);
#6540=DRAUGHTING_MODEL('',(#6490,#6500,#6510,#6520,#6530),#6380);
ENDSEC;
END-ISO-10303-21;
