ISO-10303-21;
HEADER;
FILE_DESCRIPTION(('Creo Elements/Direct Modeling STEP Export'),'2;1');
FILE_NAME('2664-20.stp','2024-09-11T14:41:15',(''),(''),
'Creo Elements/Direct Modeling STEP processor for AP214 (Solid Model)',
'Creo Elements/Direct Modeling 20.0  12-Nov-2016 (C) Parametric Technolo
gy GmbH','');
FILE_SCHEMA(('AUTOMOTIVE_DESIGN { 1 0 10303 214 1 1 1 1 }'));
ENDSEC;
DATA;
#10=CARTESIAN_POINT('',(9.64249999999999,6.8,1.4210854715202E-14));
#20=DIRECTION('',(0.,-1.,0.));
#30=DIRECTION('',(1.,0.,0.));
#40=AXIS2_PLACEMENT_3D('',#10,#20,#30);
#50=PLANE('',#40);
#60=CARTESIAN_POINT('',(7.99999999999999,6.8,1.4210854715202E-14));
#70=DIRECTION('',(0.,-1.,0.));
#80=DIRECTION('',(1.,0.,0.));
#90=AXIS2_PLACEMENT_3D('',#60,#70,#80);
#100=CIRCLE('',#90,1.635);
#110=CARTESIAN_POINT('',(7.99999999999999,6.8,1.63500000000001));
#120=VERTEX_POINT('',#110);
#130=CARTESIAN_POINT('',(6.36499999999999,6.8,1.40106249635414E-14));
#140=VERTEX_POINT('',#130);
#150=EDGE_CURVE('',#120,#140,#100,.T.);
#160=ORIENTED_EDGE('',*,*,#150,.F.);
#170=CARTESIAN_POINT('',(9.63499999999999,6.8,1.4210854715202E-14));
#180=VERTEX_POINT('',#170);
#190=EDGE_CURVE('',#140,#180,#100,.T.);
#200=ORIENTED_EDGE('',*,*,#190,.F.);
#210=EDGE_CURVE('',#180,#120,#100,.T.);
#220=ORIENTED_EDGE('',*,*,#210,.F.);
#230=EDGE_LOOP('',(#220,#200,#160));
#240=FACE_BOUND('',#230,.T.);
#250=CARTESIAN_POINT('',(7.99999999999999,6.8,1.4210854715202E-14));
#260=DIRECTION('',(0.,1.,0.));
#270=DIRECTION('',(1.,0.,0.));
#280=AXIS2_PLACEMENT_3D('',#250,#260,#270);
#290=CIRCLE('',#280,1.65);
#300=CARTESIAN_POINT('',(9.64999999999999,6.8,1.4210854715202E-14));
#310=VERTEX_POINT('',#300);
#320=CARTESIAN_POINT('',(6.34999999999999,6.8,1.44129214370613E-14));
#330=VERTEX_POINT('',#320);
#340=EDGE_CURVE('',#310,#330,#290,.T.);
#350=ORIENTED_EDGE('',*,*,#340,.F.);
#360=EDGE_CURVE('',#330,#310,#290,.T.);
#370=ORIENTED_EDGE('',*,*,#360,.F.);
#380=EDGE_LOOP('',(#370,#350));
#390=FACE_OUTER_BOUND('',#380,.T.);
#400=ADVANCED_FACE('',(#240,#390),#50,.T.);
#410=CARTESIAN_POINT('',(9.75,-0.2,0.));
#420=DIRECTION('',(-0.,1.,0.));
#430=DIRECTION('',(1.,0.,0.));
#440=AXIS2_PLACEMENT_3D('',#410,#420,#430);
#450=PLANE('',#440);
#460=CARTESIAN_POINT('',(7.99999999999999,-0.2,1.4210854715202E-14));
#470=DIRECTION('',(0.,-1.,0.));
#480=DIRECTION('',(-1.,0.,0.));
#490=AXIS2_PLACEMENT_3D('',#460,#470,#480);
#500=CIRCLE('',#490,2.5);
#510=CARTESIAN_POINT('',(10.5,-0.2,1.39046930154152E-14));
#520=VERTEX_POINT('',#510);
#530=CARTESIAN_POINT('',(5.49999999999999,-0.2,1.4210854715202E-14));
#540=VERTEX_POINT('',#530);
#550=EDGE_CURVE('',#520,#540,#500,.T.);
#560=ORIENTED_EDGE('',*,*,#550,.F.);
#570=EDGE_CURVE('',#540,#520,#500,.T.);
#580=ORIENTED_EDGE('',*,*,#570,.F.);
#590=EDGE_LOOP('',(#580,#560));
#600=FACE_BOUND('',#590,.T.);
#610=CARTESIAN_POINT('',(7.99999999999998,-0.2,1.06581410364015E-14));
#620=DIRECTION('',(0.,-1.,0.));
#630=DIRECTION('',(-1.,0.,0.));
#640=AXIS2_PLACEMENT_3D('',#610,#620,#630);
#650=CIRCLE('',#640,4.75);
#660=CARTESIAN_POINT('',(3.24999999999998,-0.2,1.06581410364015E-14));
#670=VERTEX_POINT('',#660);
#680=CARTESIAN_POINT('',(12.75,-0.2,1.00764338068065E-14));
#690=VERTEX_POINT('',#680);
#700=EDGE_CURVE('',#670,#690,#650,.T.);
#710=ORIENTED_EDGE('',*,*,#700,.T.);
#720=EDGE_CURVE('',#690,#670,#650,.T.);
#730=ORIENTED_EDGE('',*,*,#720,.T.);
#740=EDGE_LOOP('',(#730,#710));
#750=FACE_OUTER_BOUND('',#740,.T.);
#760=ADVANCED_FACE('',(#600,#750),#450,.F.);
#770=CARTESIAN_POINT('',(7.99999999999998,9.80000000000002,
1.33272656319918E-15));
#780=DIRECTION('',(0.,1.,0.));
#790=DIRECTION('',(-0.866025403784438,0.,0.5));
#800=AXIS2_PLACEMENT_3D('',#770,#780,#790);
#810=CYLINDRICAL_SURFACE('',#800,10.);
#820=CARTESIAN_POINT('',(7.99999999999998,4.3,1.33272656319918E-15));
#830=DIRECTION('',(0.,1.,0.));
#840=DIRECTION('',(1.,0.,0.));
#850=AXIS2_PLACEMENT_3D('',#820,#830,#840);
#860=CIRCLE('',#850,10.);
#870=CARTESIAN_POINT('',(16.6602540378444,4.3,-5.));
#880=VERTEX_POINT('',#870);
#890=CARTESIAN_POINT('',(-2.00000000000002,4.3,1.08079764051828E-16));
#900=VERTEX_POINT('',#890);
#910=EDGE_CURVE('',#880,#900,#860,.T.);
#920=ORIENTED_EDGE('',*,*,#910,.T.);
#930=CARTESIAN_POINT('',(16.6602540378444,9.80000000000002,-5.));
#940=DIRECTION('',(0.,1.,0.));
#950=VECTOR('',#940,1.);
#960=LINE('',#930,#950);
#970=CARTESIAN_POINT('',(16.6602540378444,8.80000000000002,-5.));
#980=VERTEX_POINT('',#970);
#990=EDGE_CURVE('',#880,#980,#960,.T.);
#1000=ORIENTED_EDGE('',*,*,#990,.F.);
#1010=CARTESIAN_POINT('',(7.99999999999998,8.80000000000002,
1.33272656319918E-15));
#1020=DIRECTION('',(0.,1.,0.));
#1030=DIRECTION('',(1.,0.,0.));
#1040=AXIS2_PLACEMENT_3D('',#1010,#1020,#1030);
#1050=CIRCLE('',#1040,10.);
#1060=CARTESIAN_POINT('',(-2.00000000000002,8.80000000000002,
1.33272656319918E-15));
#1070=VERTEX_POINT('',#1060);
#1080=EDGE_CURVE('',#980,#1070,#1050,.T.);
#1090=ORIENTED_EDGE('',*,*,#1080,.F.);
#1100=CARTESIAN_POINT('',(-0.660254037844402,8.80000000000002,
5.00000000000001));
#1110=VERTEX_POINT('',#1100);
#1120=EDGE_CURVE('',#1070,#1110,#1050,.T.);
#1130=ORIENTED_EDGE('',*,*,#1120,.F.);
#1140=CARTESIAN_POINT('',(-0.660254037844402,9.80000000000002,
5.00000000000001));
#1150=DIRECTION('',(0.,1.,0.));
#1160=VECTOR('',#1150,1.);
#1170=LINE('',#1140,#1160);
#1180=CARTESIAN_POINT('',(-0.660254037844402,4.3,5.00000000000001));
#1190=VERTEX_POINT('',#1180);
#1200=EDGE_CURVE('',#1190,#1110,#1170,.T.);
#1210=ORIENTED_EDGE('',*,*,#1200,.T.);
#1220=EDGE_CURVE('',#900,#1190,#860,.T.);
#1230=ORIENTED_EDGE('',*,*,#1220,.T.);
#1240=EDGE_LOOP('',(#1230,#1210,#1130,#1090,#1000,#920));
#1250=FACE_OUTER_BOUND('',#1240,.T.);
#1260=ADVANCED_FACE('',(#1250),#810,.T.);
#1270=CARTESIAN_POINT('',(7.99999999999999,7.3,1.4210854715202E-14));
#1280=DIRECTION('',(0.,-1.,0.));
#1290=DIRECTION('',(1.,0.,0.));
#1300=AXIS2_PLACEMENT_3D('',#1270,#1280,#1290);
#1310=CYLINDRICAL_SURFACE('',#1300,1.635);
#1320=CARTESIAN_POINT('',(9.63499999999999,7.3,1.4210854715202E-14));
#1330=DIRECTION('',(0.,-1.,0.));
#1340=VECTOR('',#1330,1.);
#1350=LINE('',#1320,#1340);
#1360=CARTESIAN_POINT('',(9.63499999999999,7.8,1.4210854715202E-14));
#1370=VERTEX_POINT('',#1360);
#1380=EDGE_CURVE('',#1370,#180,#1350,.T.);
#1390=ORIENTED_EDGE('',*,*,#1380,.T.);
#1400=CARTESIAN_POINT('',(7.99999999999999,7.8,1.4210854715202E-14));
#1410=DIRECTION('',(0.,1.,0.));
#1420=DIRECTION('',(1.,0.,0.));
#1430=AXIS2_PLACEMENT_3D('',#1400,#1410,#1420);
#1440=CIRCLE('',#1430,1.635);
#1450=CARTESIAN_POINT('',(7.99999999999999,7.8,1.63500000000001));
#1460=VERTEX_POINT('',#1450);
#1470=EDGE_CURVE('',#1460,#1370,#1440,.T.);
#1480=ORIENTED_EDGE('',*,*,#1470,.T.);
#1490=CARTESIAN_POINT('',(6.36499999999999,7.8,1.40106249635414E-14));
#1500=VERTEX_POINT('',#1490);
#1510=EDGE_CURVE('',#1500,#1460,#1440,.T.);
#1520=ORIENTED_EDGE('',*,*,#1510,.T.);
#1530=CARTESIAN_POINT('',(6.36499999999999,7.3,1.40106249635414E-14));
#1540=DIRECTION('',(0.,-1.,0.));
#1550=VECTOR('',#1540,1.);
#1560=LINE('',#1530,#1550);
#1570=EDGE_CURVE('',#1500,#140,#1560,.T.);
#1580=ORIENTED_EDGE('',*,*,#1570,.F.);
#1590=ORIENTED_EDGE('',*,*,#150,.T.);
#1600=ORIENTED_EDGE('',*,*,#210,.T.);
#1610=EDGE_LOOP('',(#1600,#1590,#1580,#1520,#1480,#1390));
#1620=FACE_OUTER_BOUND('',#1610,.T.);
#1630=ADVANCED_FACE('',(#1620),#1310,.F.);
#1640=CARTESIAN_POINT('',(10.835,7.8,1.4210854715202E-14));
#1650=DIRECTION('',(-0.,1.,0.));
#1660=DIRECTION('',(1.,0.,0.));
#1670=AXIS2_PLACEMENT_3D('',#1640,#1650,#1660);
#1680=PLANE('',#1670);
#1690=ORIENTED_EDGE('',*,*,#1470,.F.);
#1700=EDGE_CURVE('',#1370,#1500,#1440,.T.);
#1710=ORIENTED_EDGE('',*,*,#1700,.F.);
#1720=ORIENTED_EDGE('',*,*,#1510,.F.);
#1730=EDGE_LOOP('',(#1720,#1710,#1690));
#1740=FACE_OUTER_BOUND('',#1730,.T.);
#1750=ADVANCED_FACE('',(#1740),#1680,.F.);
#1760=CARTESIAN_POINT('',(30.2152197163218,9.80000000000002,
8.47788890989811));
#1770=DIRECTION('',(0.,1.,-0.));
#1780=DIRECTION('',(-0.866025403784439,0.,0.5));
#1790=AXIS2_PLACEMENT_3D('',#1760,#1770,#1780);
#1800=PLANE('',#1790);
#1810=CARTESIAN_POINT('',(7.99999999999998,9.80000000000002,
1.33272656319918E-15));
#1820=DIRECTION('',(0.,1.,0.));
#1830=DIRECTION('',(1.,0.,0.));
#1840=AXIS2_PLACEMENT_3D('',#1810,#1820,#1830);
#1850=CIRCLE('',#1840,9.);
#1860=CARTESIAN_POINT('',(17.,9.80000000000002,2.30544443966564E-16));
#1870=VERTEX_POINT('',#1860);
#1880=CARTESIAN_POINT('',(-1.00000000000002,9.80000000000002,
1.33272656319918E-15));
#1890=VERTEX_POINT('',#1880);
#1900=EDGE_CURVE('',#1870,#1890,#1850,.T.);
#1910=ORIENTED_EDGE('',*,*,#1900,.T.);
#1920=CARTESIAN_POINT('',(0.20577136594004,9.80000000000002,4.5));
#1930=VERTEX_POINT('',#1920);
#1940=EDGE_CURVE('',#1930,#1870,#1850,.T.);
#1950=ORIENTED_EDGE('',*,*,#1940,.T.);
#1960=EDGE_CURVE('',#1890,#1930,#1850,.T.);
#1970=ORIENTED_EDGE('',*,*,#1960,.T.);
#1980=EDGE_LOOP('',(#1970,#1950,#1910));
#1990=FACE_OUTER_BOUND('',#1980,.T.);
#2000=ADVANCED_FACE('',(#1990),#1800,.T.);
#2010=CARTESIAN_POINT('',(30.2152197163218,3.8,8.47788890989811));
#2020=DIRECTION('',(0.,1.,-0.));
#2030=DIRECTION('',(-0.866025403784439,0.,0.5));
#2040=AXIS2_PLACEMENT_3D('',#2010,#2020,#2030);
#2050=PLANE('',#2040);
#2060=CARTESIAN_POINT('',(7.99999999999998,3.8,1.06581410364015E-14));
#2070=DIRECTION('',(0.,-1.,0.));
#2080=DIRECTION('',(-1.,0.,0.));
#2090=AXIS2_PLACEMENT_3D('',#2060,#2070,#2080);
#2100=CIRCLE('',#2090,4.75);
#2110=CARTESIAN_POINT('',(3.24999999999998,3.8,1.06581410364015E-14));
#2120=VERTEX_POINT('',#2110);
#2130=CARTESIAN_POINT('',(12.75,3.8,1.00764338068065E-14));
#2140=VERTEX_POINT('',#2130);
#2150=EDGE_CURVE('',#2120,#2140,#2100,.T.);
#2160=ORIENTED_EDGE('',*,*,#2150,.F.);
#2170=EDGE_CURVE('',#2140,#2120,#2100,.T.);
#2180=ORIENTED_EDGE('',*,*,#2170,.F.);
#2190=EDGE_LOOP('',(#2180,#2160));
#2200=FACE_BOUND('',#2190,.T.);
#2210=CARTESIAN_POINT('',(7.99999999999998,3.8,1.33272656319918E-15));
#2220=DIRECTION('',(0.,1.,0.));
#2230=DIRECTION('',(1.,0.,0.));
#2240=AXIS2_PLACEMENT_3D('',#2210,#2220,#2230);
#2250=CIRCLE('',#2240,9.5);
#2260=CARTESIAN_POINT('',(-0.227241335952189,3.8,4.74999999999999));
#2270=VERTEX_POINT('',#2260);
#2280=CARTESIAN_POINT('',(17.5,3.8,1.33272656319918E-15));
#2290=VERTEX_POINT('',#2280);
#2300=EDGE_CURVE('',#2270,#2290,#2250,.T.);
#2310=ORIENTED_EDGE('',*,*,#2300,.F.);
#2320=CARTESIAN_POINT('',(-1.50000000000001,3.8,1.69312104009197E-16));
#2330=VERTEX_POINT('',#2320);
#2340=EDGE_CURVE('',#2290,#2330,#2250,.T.);
#2350=ORIENTED_EDGE('',*,*,#2340,.F.);
#2360=EDGE_CURVE('',#2330,#2270,#2250,.T.);
#2370=ORIENTED_EDGE('',*,*,#2360,.F.);
#2380=EDGE_LOOP('',(#2370,#2350,#2310));
#2390=FACE_OUTER_BOUND('',#2380,.T.);
#2400=ADVANCED_FACE('',(#2200,#2390),#2050,.F.);
#2410=CARTESIAN_POINT('',(7.99999999999999,3.3,1.4210854715202E-14));
#2420=DIRECTION('',(0.,-1.,0.));
#2430=DIRECTION('',(1.,0.,0.));
#2440=AXIS2_PLACEMENT_3D('',#2410,#2420,#2430);
#2450=CYLINDRICAL_SURFACE('',#2440,1.65);
#2460=CARTESIAN_POINT('',(6.34999999999999,3.3,1.44129214370613E-14));
#2470=DIRECTION('',(0.,-1.,0.));
#2480=VECTOR('',#2470,1.);
#2490=LINE('',#2460,#2480);
#2500=CARTESIAN_POINT('',(6.34999999999999,0.65,1.44129214370613E-14));
#2510=VERTEX_POINT('',#2500);
#2520=EDGE_CURVE('',#330,#2510,#2490,.T.);
#2530=ORIENTED_EDGE('',*,*,#2520,.F.);
#2540=CARTESIAN_POINT('',(7.99999999999999,0.65,1.4210854715202E-14));
#2550=DIRECTION('',(0.,-1.,0.));
#2560=DIRECTION('',(-1.,0.,0.));
#2570=AXIS2_PLACEMENT_3D('',#2540,#2550,#2560);
#2580=CIRCLE('',#2570,1.65);
#2590=CARTESIAN_POINT('',(9.64999999999999,0.650000000000001,
1.4210854715202E-14));
#2600=VERTEX_POINT('',#2590);
#2610=EDGE_CURVE('',#2600,#2510,#2580,.T.);
#2620=ORIENTED_EDGE('',*,*,#2610,.T.);
#2630=CARTESIAN_POINT('',(9.64999999999999,3.3,1.4210854715202E-14));
#2640=DIRECTION('',(0.,-1.,0.));
#2650=VECTOR('',#2640,1.);
#2660=LINE('',#2630,#2650);
#2670=EDGE_CURVE('',#310,#2600,#2660,.T.);
#2680=ORIENTED_EDGE('',*,*,#2670,.T.);
#2690=ORIENTED_EDGE('',*,*,#360,.T.);
#2700=EDGE_LOOP('',(#2690,#2680,#2620,#2530));
#2710=FACE_OUTER_BOUND('',#2700,.T.);
#2720=ADVANCED_FACE('M4_2739184',(#2710),#2450,.F.);
#2730=COLOUR_RGB('',1.,0.,0.);
#2740=FILL_AREA_STYLE_COLOUR('',#2730);
#2750=FILL_AREA_STYLE('',(#2740));
#2760=SURFACE_STYLE_FILL_AREA(#2750);
#2770=SURFACE_SIDE_STYLE('',(#2760));
#2780=SURFACE_STYLE_USAGE(.BOTH.,#2770);
#2790=PRESENTATION_STYLE_ASSIGNMENT((#2780));
#2800=CARTESIAN_POINT('',(7.99999999999998,3.8,1.06581410364015E-14));
#2810=DIRECTION('',(0.,-1.,0.));
#2820=DIRECTION('',(-1.,0.,0.));
#2830=AXIS2_PLACEMENT_3D('',#2800,#2810,#2820);
#2840=CYLINDRICAL_SURFACE('',#2830,4.75);
#2850=CARTESIAN_POINT('',(12.75,3.8,1.00764338068065E-14));
#2860=DIRECTION('',(0.,-1.,0.));
#2870=VECTOR('',#2860,1.);
#2880=LINE('',#2850,#2870);
#2890=EDGE_CURVE('',#2140,#690,#2880,.T.);
#2900=ORIENTED_EDGE('',*,*,#2890,.F.);
#2910=ORIENTED_EDGE('',*,*,#720,.F.);
#2920=CARTESIAN_POINT('',(3.24999999999998,3.8,1.06581410364015E-14));
#2930=DIRECTION('',(0.,-1.,0.));
#2940=VECTOR('',#2930,1.);
#2950=LINE('',#2920,#2940);
#2960=EDGE_CURVE('',#2120,#670,#2950,.T.);
#2970=ORIENTED_EDGE('',*,*,#2960,.T.);
#2980=ORIENTED_EDGE('',*,*,#2170,.T.);
#2990=EDGE_LOOP('',(#2980,#2970,#2910,#2900));
#3000=FACE_OUTER_BOUND('',#2990,.T.);
#3010=ADVANCED_FACE('',(#3000),#2840,.T.);
#3020=CARTESIAN_POINT('',(7.99999999999999,0.65,1.4210854715202E-14));
#3030=DIRECTION('',(0.,-1.,0.));
#3040=DIRECTION('',(-1.,0.,0.));
#3050=AXIS2_PLACEMENT_3D('',#3020,#3030,#3040);
#3060=CONICAL_SURFACE('',#3050,1.65,0.785398163397448);
#3070=CARTESIAN_POINT('',(9.64999999999999,0.65,1.40087879933427E-14));
#3080=DIRECTION('',(0.707106781186547,-0.707106781186548,
-8.65956056235496E-17));
#3090=VECTOR('',#3080,2.33345237791561);
#3100=LINE('',#3070,#3090);
#3110=EDGE_CURVE('',#2600,#520,#3100,.T.);
#3120=ORIENTED_EDGE('',*,*,#3110,.F.);
#3130=ORIENTED_EDGE('',*,*,#570,.T.);
#3140=CARTESIAN_POINT('',(6.34999999999999,0.65,1.4210854715202E-14));
#3150=DIRECTION('',(-0.707106781186547,-0.707106781186548,0.));
#3160=VECTOR('',#3150,2.33345237791561);
#3170=LINE('',#3140,#3160);
#3180=EDGE_CURVE('',#2510,#540,#3170,.T.);
#3190=ORIENTED_EDGE('',*,*,#3180,.T.);
#3200=EDGE_CURVE('',#2510,#2600,#2580,.T.);
#3210=ORIENTED_EDGE('',*,*,#3200,.F.);
#3220=EDGE_LOOP('',(#3210,#3190,#3130,#3120));
#3230=FACE_OUTER_BOUND('',#3220,.T.);
#3240=ADVANCED_FACE('',(#3230),#3060,.F.);
#3250=CARTESIAN_POINT('',(7.99999999999998,9.80000000000002,
1.33272656319918E-15));
#3260=DIRECTION('',(0.,-1.,0.));
#3270=DIRECTION('',(-1.,0.,0.));
#3280=AXIS2_PLACEMENT_3D('',#3250,#3260,#3270);
#3290=CONICAL_SURFACE('',#3280,9.,0.78539816339745);
#3300=ORIENTED_EDGE('',*,*,#1940,.F.);
#3310=CARTESIAN_POINT('',(17.,9.80000000000002,2.30544443966564E-16));
#3320=DIRECTION('',(0.707106781186549,-0.707106781186546,
-8.65956056235495E-17));
#3330=VECTOR('',#3320,12.7279220613578);
#3340=LINE('',#3310,#3330);
#3350=CARTESIAN_POINT('',(18.,8.80000000000002,1.08079764051828E-16));
#3360=VERTEX_POINT('',#3350);
#3370=EDGE_CURVE('',#1870,#3360,#3340,.T.);
#3380=ORIENTED_EDGE('',*,*,#3370,.F.);
#3390=EDGE_CURVE('',#1110,#3360,#1050,.T.);
#3400=ORIENTED_EDGE('',*,*,#3390,.T.);
#3410=ORIENTED_EDGE('',*,*,#1120,.T.);
#3420=CARTESIAN_POINT('',(-1.00000000000002,9.80000000000002,
1.33272656319918E-15));
#3430=DIRECTION('',(-0.707106781186549,-0.707106781186546,0.));
#3440=VECTOR('',#3430,12.7279220613578);
#3450=LINE('',#3420,#3440);
#3460=EDGE_CURVE('',#1890,#1070,#3450,.T.);
#3470=ORIENTED_EDGE('',*,*,#3460,.T.);
#3480=ORIENTED_EDGE('',*,*,#1960,.F.);
#3490=EDGE_LOOP('',(#3480,#3470,#3410,#3400,#3380,#3300));
#3500=FACE_OUTER_BOUND('',#3490,.T.);
#3510=ADVANCED_FACE('',(#3500),#3290,.T.);
#3520=CARTESIAN_POINT('',(7.99999999999998,3.8,1.33272656319918E-15));
#3530=DIRECTION('',(0.,1.,0.));
#3540=DIRECTION('',(1.,0.,0.));
#3550=AXIS2_PLACEMENT_3D('',#3520,#3530,#3540);
#3560=CONICAL_SURFACE('',#3550,9.5,0.785398163397454);
#3570=CARTESIAN_POINT('',(-1.50000000000001,3.8,1.69312104009197E-16));
#3580=DIRECTION('',(-0.707106781186551,0.707106781186544,
-8.65956056235498E-17));
#3590=VECTOR('',#3580,13.4350288425443);
#3600=LINE('',#3570,#3590);
#3610=EDGE_CURVE('',#2330,#900,#3600,.T.);
#3620=ORIENTED_EDGE('',*,*,#3610,.F.);
#3630=ORIENTED_EDGE('',*,*,#1220,.F.);
#3640=CARTESIAN_POINT('',(18.,4.3,1.33272656319918E-15));
#3650=VERTEX_POINT('',#3640);
#3660=EDGE_CURVE('',#1190,#3650,#860,.T.);
#3670=ORIENTED_EDGE('',*,*,#3660,.F.);
#3680=CARTESIAN_POINT('',(17.5,3.8,1.33272656319918E-15));
#3690=DIRECTION('',(0.707106781186551,0.707106781186544,0.));
#3700=VECTOR('',#3690,13.4350288425443);
#3710=LINE('',#3680,#3700);
#3720=EDGE_CURVE('',#2290,#3650,#3710,.T.);
#3730=ORIENTED_EDGE('',*,*,#3720,.T.);
#3740=ORIENTED_EDGE('',*,*,#2300,.T.);
#3750=ORIENTED_EDGE('',*,*,#2360,.T.);
#3760=EDGE_LOOP('',(#3750,#3740,#3730,#3670,#3630,#3620));
#3770=FACE_OUTER_BOUND('',#3760,.T.);
#3780=ADVANCED_FACE('',(#3770),#3560,.T.);
#3790=CARTESIAN_POINT('',(7.99999999999998,3.8,1.33272656319918E-15));
#3800=DIRECTION('',(0.,1.,0.));
#3810=DIRECTION('',(1.,0.,0.));
#3820=AXIS2_PLACEMENT_3D('',#3790,#3800,#3810);
#3830=CONICAL_SURFACE('',#3820,9.5,0.785398163397454);
#3840=ORIENTED_EDGE('',*,*,#2340,.T.);
#3850=ORIENTED_EDGE('',*,*,#3720,.F.);
#3860=EDGE_CURVE('',#3650,#880,#860,.T.);
#3870=ORIENTED_EDGE('',*,*,#3860,.F.);
#3880=ORIENTED_EDGE('',*,*,#910,.F.);
#3890=ORIENTED_EDGE('',*,*,#3610,.T.);
#3900=EDGE_LOOP('',(#3890,#3880,#3870,#3850,#3840));
#3910=FACE_OUTER_BOUND('',#3900,.T.);
#3920=ADVANCED_FACE('',(#3910),#3830,.T.);
#3930=CARTESIAN_POINT('',(7.99999999999998,3.8,1.06581410364015E-14));
#3940=DIRECTION('',(0.,-1.,0.));
#3950=DIRECTION('',(-1.,0.,0.));
#3960=AXIS2_PLACEMENT_3D('',#3930,#3940,#3950);
#3970=CYLINDRICAL_SURFACE('',#3960,4.75);
#3980=ORIENTED_EDGE('',*,*,#700,.F.);
#3990=ORIENTED_EDGE('',*,*,#2890,.T.);
#4000=ORIENTED_EDGE('',*,*,#2150,.T.);
#4010=ORIENTED_EDGE('',*,*,#2960,.F.);
#4020=EDGE_LOOP('',(#4010,#4000,#3990,#3980));
#4030=FACE_OUTER_BOUND('',#4020,.T.);
#4040=ADVANCED_FACE('',(#4030),#3970,.T.);
#4050=CARTESIAN_POINT('',(7.99999999999999,0.65,1.4210854715202E-14));
#4060=DIRECTION('',(0.,-1.,0.));
#4070=DIRECTION('',(-1.,0.,0.));
#4080=AXIS2_PLACEMENT_3D('',#4050,#4060,#4070);
#4090=CONICAL_SURFACE('',#4080,1.65,0.785398163397448);
#4100=ORIENTED_EDGE('',*,*,#550,.T.);
#4110=ORIENTED_EDGE('',*,*,#3110,.T.);
#4120=ORIENTED_EDGE('',*,*,#2610,.F.);
#4130=ORIENTED_EDGE('',*,*,#3180,.F.);
#4140=EDGE_LOOP('',(#4130,#4120,#4110,#4100));
#4150=FACE_OUTER_BOUND('',#4140,.T.);
#4160=ADVANCED_FACE('',(#4150),#4090,.F.);
#4170=CARTESIAN_POINT('',(7.99999999999999,3.3,1.4210854715202E-14));
#4180=DIRECTION('',(0.,-1.,0.));
#4190=DIRECTION('',(1.,0.,0.));
#4200=AXIS2_PLACEMENT_3D('',#4170,#4180,#4190);
#4210=CYLINDRICAL_SURFACE('',#4200,1.65);
#4220=ORIENTED_EDGE('',*,*,#2520,.T.);
#4230=ORIENTED_EDGE('',*,*,#340,.T.);
#4240=ORIENTED_EDGE('',*,*,#2670,.F.);
#4250=ORIENTED_EDGE('',*,*,#3200,.T.);
#4260=EDGE_LOOP('',(#4250,#4240,#4230,#4220));
#4270=FACE_OUTER_BOUND('',#4260,.T.);
#4280=ADVANCED_FACE('',(#4270),#4210,.F.);
#4290=COLOUR_RGB('',1.,0.,0.);
#4300=FILL_AREA_STYLE_COLOUR('',#4290);
#4310=FILL_AREA_STYLE('',(#4300));
#4320=SURFACE_STYLE_FILL_AREA(#4310);
#4330=SURFACE_SIDE_STYLE('',(#4320));
#4340=SURFACE_STYLE_USAGE(.BOTH.,#4330);
#4350=PRESENTATION_STYLE_ASSIGNMENT((#4340));
#4360=CARTESIAN_POINT('',(7.99999999999998,9.80000000000002,
1.33272656319918E-15));
#4370=DIRECTION('',(0.,-1.,0.));
#4380=DIRECTION('',(-1.,0.,0.));
#4390=AXIS2_PLACEMENT_3D('',#4360,#4370,#4380);
#4400=CONICAL_SURFACE('',#4390,9.,0.78539816339745);
#4410=ORIENTED_EDGE('',*,*,#1080,.T.);
#4420=EDGE_CURVE('',#3360,#980,#1050,.T.);
#4430=ORIENTED_EDGE('',*,*,#4420,.T.);
#4440=ORIENTED_EDGE('',*,*,#3370,.T.);
#4450=ORIENTED_EDGE('',*,*,#1900,.F.);
#4460=ORIENTED_EDGE('',*,*,#3460,.F.);
#4470=EDGE_LOOP('',(#4460,#4450,#4440,#4430,#4410));
#4480=FACE_OUTER_BOUND('',#4470,.T.);
#4490=ADVANCED_FACE('',(#4480),#4400,.T.);
#4500=CARTESIAN_POINT('',(7.99999999999999,7.3,1.4210854715202E-14));
#4510=DIRECTION('',(0.,-1.,0.));
#4520=DIRECTION('',(1.,0.,0.));
#4530=AXIS2_PLACEMENT_3D('',#4500,#4510,#4520);
#4540=CYLINDRICAL_SURFACE('',#4530,1.635);
#4550=ORIENTED_EDGE('',*,*,#190,.T.);
#4560=ORIENTED_EDGE('',*,*,#1570,.T.);
#4570=ORIENTED_EDGE('',*,*,#1700,.T.);
#4580=ORIENTED_EDGE('',*,*,#1380,.F.);
#4590=EDGE_LOOP('',(#4580,#4570,#4560,#4550));
#4600=FACE_OUTER_BOUND('',#4590,.T.);
#4610=ADVANCED_FACE('',(#4600),#4540,.F.);
#4620=CARTESIAN_POINT('',(7.99999999999998,9.80000000000002,
1.33272656319918E-15));
#4630=DIRECTION('',(0.,1.,0.));
#4640=DIRECTION('',(-0.866025403784438,0.,0.5));
#4650=AXIS2_PLACEMENT_3D('',#4620,#4630,#4640);
#4660=CYLINDRICAL_SURFACE('',#4650,10.);
#4670=ORIENTED_EDGE('',*,*,#3390,.F.);
#4680=ORIENTED_EDGE('',*,*,#4420,.F.);
#4690=ORIENTED_EDGE('',*,*,#990,.T.);
#4700=ORIENTED_EDGE('',*,*,#3860,.T.);
#4710=ORIENTED_EDGE('',*,*,#3660,.T.);
#4720=ORIENTED_EDGE('',*,*,#1200,.F.);
#4730=EDGE_LOOP('',(#4720,#4710,#4700,#4690,#4680,#4670));
#4740=FACE_OUTER_BOUND('',#4730,.T.);
#4750=ADVANCED_FACE('',(#4740),#4660,.T.);
#4760=CLOSED_SHELL('',(#400,#760,#1260,#1630,#1750,#2000,#2400,#2720,
#3010,#3240,#3510,#3780,#3920,#4040,#4160,#4280,#4490,#4610,#4750));
#4770=MANIFOLD_SOLID_BREP('',#4760);
#4780=CARTESIAN_POINT('',(0.,0.,0.));
#4790=DIRECTION('',(0.,0.,1.));
#4800=DIRECTION('',(1.,0.,0.));
#4810=AXIS2_PLACEMENT_3D('',#4780,#4790,#4800);
#4820=APPLICATION_CONTEXT(' ');
#4830=APPLICATION_PROTOCOL_DEFINITION(' ','automotive_design',1998,#4820
);
#4840=PRODUCT_CONTEXT('',#4820,'mechanical');
#4850=PRODUCT_DEFINITION_CONTEXT('part definition',#4820,'design');
#4860=PRODUCT('AL-12420','AL-12420','',(#4840));
#4870=PRODUCT_RELATED_PRODUCT_CATEGORY('part',' ',(#4860));
#4880=PRODUCT_DEFINITION_FORMATION_WITH_SPECIFIED_SOURCE('','',#4860,
.BOUGHT.);
#4890=PRODUCT_DEFINITION('',' ',#4880,#4850);
#4900=PRODUCT_DEFINITION_SHAPE('','',#4890);
#4910=DIMENSIONAL_EXPONENTS(1.,0.,0.,0.,0.,0.,0.);
#4920=DIMENSIONAL_EXPONENTS(0.,0.,0.,0.,0.,0.,0.);
#4930=DIMENSIONAL_EXPONENTS(0.,0.,0.,0.,0.,0.,0.);
#4940=(LENGTH_UNIT() NAMED_UNIT(*) SI_UNIT(.MILLI.,.METRE.));
#4950=(NAMED_UNIT(*) PLANE_ANGLE_UNIT() SI_UNIT($,.RADIAN.));
#4960=(NAMED_UNIT(*) SI_UNIT($,.STERADIAN.) SOLID_ANGLE_UNIT());
#4970=(GEOMETRIC_REPRESENTATION_CONTEXT(3) 
GLOBAL_UNCERTAINTY_ASSIGNED_CONTEXT((#4980)) 
GLOBAL_UNIT_ASSIGNED_CONTEXT((#4940,#4950,#4960)) REPRESENTATION_CONTEXT
('',''));
#4980=UNCERTAINTY_MEASURE_WITH_UNIT(LENGTH_MEASURE(1.E-6),#4940,
'distance_accuracy_value','maximum gap value');
#4990=ADVANCED_BREP_SHAPE_REPRESENTATION('',(#4810,#4770),#4970);
#5000=SHAPE_DEFINITION_REPRESENTATION(#4900,#4990);
#5010=COLOUR_RGB('',0.901960849761963,0.921568691730499,
0.921568691730499);
#5020=FILL_AREA_STYLE_COLOUR('',#5010);
#5030=FILL_AREA_STYLE('',(#5020));
#5040=SURFACE_STYLE_FILL_AREA(#5030);
#5050=SURFACE_SIDE_STYLE('',(#5040));
#5060=SURFACE_STYLE_USAGE(.BOTH.,#5050);
#5070=PRESENTATION_STYLE_ASSIGNMENT((#5060));
#5080=STYLED_ITEM('',(#5070),#4770);
#5090=OVER_RIDING_STYLED_ITEM('',(#2790),#2720,#5080);
#5100=OVER_RIDING_STYLED_ITEM('',(#4350),#4280,#5080);
#5110=DRAUGHTING_MODEL('',(#5080,#5090,#5100),#4970);
#5120=CARTESIAN_POINT('',(-72.2,-2.50000000000001,43.8));
#5130=DIRECTION('',(0.,0.,1.));
#5140=DIRECTION('',(1.,0.,0.));
#5150=AXIS2_PLACEMENT_3D('',#5120,#5130,#5140);
#5160=ITEM_DEFINED_TRANSFORMATION('AL-12420','',#4810,#5150);
#5170=APPLICATION_CONTEXT(' ');
#5180=APPLICATION_PROTOCOL_DEFINITION(' ','automotive_design',1998,#5170
);
#5190=PRODUCT_CONTEXT('',#5170,'mechanical');
#5200=PRODUCT_DEFINITION_CONTEXT('part definition',#5170,'design');
#5210=PRODUCT('AL-12420','AL-12420','',(#5190));
#5220=PRODUCT_RELATED_PRODUCT_CATEGORY('part',' ',(#5210));
#5230=PRODUCT_DEFINITION_FORMATION_WITH_SPECIFIED_SOURCE('','',#5210,
.BOUGHT.);
#5240=PRODUCT_DEFINITION('',' ',#5230,#5200);
#5250=PRODUCT_DEFINITION_SHAPE('','',#5240);
#5260=DIMENSIONAL_EXPONENTS(1.,0.,0.,0.,0.,0.,0.);
#5270=DIMENSIONAL_EXPONENTS(0.,0.,0.,0.,0.,0.,0.);
#5280=DIMENSIONAL_EXPONENTS(0.,0.,0.,0.,0.,0.,0.);
#5290=(LENGTH_UNIT() NAMED_UNIT(*) SI_UNIT(.MILLI.,.METRE.));
#5300=(NAMED_UNIT(*) PLANE_ANGLE_UNIT() SI_UNIT($,.RADIAN.));
#5310=(NAMED_UNIT(*) SI_UNIT($,.STERADIAN.) SOLID_ANGLE_UNIT());
#5320=(GEOMETRIC_REPRESENTATION_CONTEXT(3) 
GLOBAL_UNCERTAINTY_ASSIGNED_CONTEXT((#5330)) 
GLOBAL_UNIT_ASSIGNED_CONTEXT((#5290,#5300,#5310)) REPRESENTATION_CONTEXT
('',''));
#5330=UNCERTAINTY_MEASURE_WITH_UNIT(LENGTH_MEASURE(1.E-6),#5290,
'distance_accuracy_value','maximum gap value');
#5340=SHAPE_REPRESENTATION('',(#4810,#5150),#5320);
#5350=SHAPE_DEFINITION_REPRESENTATION(#5250,#5340);
#5360=(REPRESENTATION_RELATIONSHIP('','',#4990,#5340) 
REPRESENTATION_RELATIONSHIP_WITH_TRANSFORMATION(#5160) 
SHAPE_REPRESENTATION_RELATIONSHIP());
#5370=NEXT_ASSEMBLY_USAGE_OCCURRENCE('1','','AL-12420',#5240,#4890,'');
#5380=PRODUCT_DEFINITION_SHAPE('','',#5370);
#5390=CONTEXT_DEPENDENT_SHAPE_REPRESENTATION(#5360,#5380);
ENDSEC;
END-ISO-10303-21;
