ISO-10303-21;
HEADER;
FILE_DESCRIPTION(('Creo Elements/Direct Modeling STEP Export'),'2;1');
FILE_NAME('2353-25.stp','2024-09-12T10:08:33',(''),(''),
'Creo Elements/Direct Modeling STEP processor for AP214 (Solid Model)',
'Creo Elements/Direct Modeling 20.0  12-Nov-2016 (C) Parametric Technolo
gy GmbH','');
FILE_SCHEMA(('AUTOMOTIVE_DESIGN { 1 0 10303 214 1 1 1 1 }'));
ENDSEC;
DATA;
#10=CARTESIAN_POINT('',(0.,6.09009842300308,0.));
#20=DIRECTION('',(0.,1.,0.));
#30=DIRECTION('',(-1.,0.,0.));
#40=AXIS2_PLACEMENT_3D('',#10,#20,#30);
#50=TOROIDAL_SURFACE('',#40,44.5,40.);
#60=CARTESIAN_POINT('',(44.5,6.09009842300308,0.));
#70=DIRECTION('',(0.,0.,-1.));
#80=DIRECTION('',(-1.,0.,0.));
#90=AXIS2_PLACEMENT_3D('',#60,#70,#80);
#100=CIRCLE('',#90,40.);
#110=CARTESIAN_POINT('',(4.5,6.09009842300308,0.));
#120=VERTEX_POINT('',#110);
#130=CARTESIAN_POINT('',(12.4012345679012,29.9578435560294,0.));
#140=VERTEX_POINT('',#130);
#150=EDGE_CURVE('',#120,#140,#100,.T.);
#160=ORIENTED_EDGE('',*,*,#150,.F.);
#170=CARTESIAN_POINT('',(0.,29.9578435560294,0.));
#180=DIRECTION('',(0.,1.,0.));
#190=DIRECTION('',(-1.,0.,0.));
#200=AXIS2_PLACEMENT_3D('',#170,#180,#190);
#210=CIRCLE('',#200,12.4012345679012);
#220=CARTESIAN_POINT('',(-12.4012345679012,29.9578435560294,0.));
#230=VERTEX_POINT('',#220);
#240=EDGE_CURVE('',#140,#230,#210,.T.);
#250=ORIENTED_EDGE('',*,*,#240,.F.);
#260=CARTESIAN_POINT('',(-44.5,6.09009842300308,0.));
#270=DIRECTION('',(0.,0.,1.));
#280=DIRECTION('',(1.,0.,0.));
#290=AXIS2_PLACEMENT_3D('',#260,#270,#280);
#300=CIRCLE('',#290,40.);
#310=CARTESIAN_POINT('',(-4.5,6.09009842300308,0.));
#320=VERTEX_POINT('',#310);
#330=EDGE_CURVE('',#320,#230,#300,.T.);
#340=ORIENTED_EDGE('',*,*,#330,.T.);
#350=CARTESIAN_POINT('',(0.,6.09009842300308,0.));
#360=DIRECTION('',(0.,1.,0.));
#370=DIRECTION('',(-1.,0.,0.));
#380=AXIS2_PLACEMENT_3D('',#350,#360,#370);
#390=CIRCLE('',#380,4.5);
#400=EDGE_CURVE('',#120,#320,#390,.T.);
#410=ORIENTED_EDGE('',*,*,#400,.T.);
#420=EDGE_LOOP('',(#410,#340,#250,#160));
#430=FACE_OUTER_BOUND('',#420,.T.);
#440=ADVANCED_FACE('',(#430),#50,.F.);
#450=CARTESIAN_POINT('',(0.,3.04504921150154,0.));
#460=DIRECTION('',(0.,-1.,0.));
#470=DIRECTION('',(-1.,0.,0.));
#480=AXIS2_PLACEMENT_3D('',#450,#460,#470);
#490=CYLINDRICAL_SURFACE('',#480,4.5);
#500=CARTESIAN_POINT('',(4.5,3.04504921150154,-5.51091059616309E-16));
#510=DIRECTION('',(0.,-1.,0.));
#520=VECTOR('',#510,1.);
#530=LINE('',#500,#520);
#540=CARTESIAN_POINT('',(4.5,0.,-5.51091059616309E-16));
#550=VERTEX_POINT('',#540);
#560=EDGE_CURVE('',#120,#550,#530,.T.);
#570=ORIENTED_EDGE('',*,*,#560,.T.);
#580=ORIENTED_EDGE('',*,*,#400,.F.);
#590=CARTESIAN_POINT('',(-4.5,3.04504921150154,0.));
#600=DIRECTION('',(0.,-1.,0.));
#610=VECTOR('',#600,1.);
#620=LINE('',#590,#610);
#630=CARTESIAN_POINT('',(-4.5,0.,0.));
#640=VERTEX_POINT('',#630);
#650=EDGE_CURVE('',#320,#640,#620,.T.);
#660=ORIENTED_EDGE('',*,*,#650,.F.);
#670=CARTESIAN_POINT('',(0.,0.,0.));
#680=DIRECTION('',(0.,1.,0.));
#690=DIRECTION('',(-1.,0.,0.));
#700=AXIS2_PLACEMENT_3D('',#670,#680,#690);
#710=CIRCLE('',#700,4.5);
#720=EDGE_CURVE('',#550,#640,#710,.T.);
#730=ORIENTED_EDGE('',*,*,#720,.T.);
#740=EDGE_LOOP('',(#730,#660,#580,#570));
#750=FACE_OUTER_BOUND('',#740,.T.);
#760=ADVANCED_FACE('',(#750),#490,.T.);
#770=CARTESIAN_POINT('',(-2.25,0.,0.));
#780=DIRECTION('',(-0.,1.,0.));
#790=DIRECTION('',(1.,0.,0.));
#800=AXIS2_PLACEMENT_3D('',#770,#780,#790);
#810=PLANE('',#800);
#820=EDGE_CURVE('',#640,#550,#710,.T.);
#830=ORIENTED_EDGE('',*,*,#820,.F.);
#840=ORIENTED_EDGE('',*,*,#720,.F.);
#850=EDGE_LOOP('',(#840,#830));
#860=FACE_OUTER_BOUND('',#850,.T.);
#870=CARTESIAN_POINT('',(0.,0.,0.));
#880=DIRECTION('',(0.,-1.,0.));
#890=DIRECTION('',(1.,0.,0.));
#900=AXIS2_PLACEMENT_3D('',#870,#880,#890);
#910=CIRCLE('',#900,1.65);
#920=CARTESIAN_POINT('',(1.65,0.,0.));
#930=VERTEX_POINT('',#920);
#940=CARTESIAN_POINT('',(-1.65,0.,2.02066721859313E-16));
#950=VERTEX_POINT('',#940);
#960=EDGE_CURVE('',#930,#950,#910,.T.);
#970=ORIENTED_EDGE('',*,*,#960,.F.);
#980=EDGE_CURVE('',#950,#930,#910,.T.);
#990=ORIENTED_EDGE('',*,*,#980,.F.);
#1000=EDGE_LOOP('',(#990,#970));
#1010=FACE_BOUND('',#1000,.T.);
#1020=ADVANCED_FACE('',(#860,#1010),#810,.F.);
#1030=CARTESIAN_POINT('',(0.,-38.2,0.));
#1040=DIRECTION('',(0.,1.,0.));
#1050=DIRECTION('',(1.,0.,0.));
#1060=AXIS2_PLACEMENT_3D('',#1030,#1040,#1050);
#1070=SPHERICAL_SURFACE('',#1060,70.);
#1080=CARTESIAN_POINT('',(0.,-38.2,0.));
#1090=DIRECTION('',(0.,0.,-1.));
#1100=DIRECTION('',(1.,-0.,0.));
#1110=AXIS2_PLACEMENT_3D('',#1080,#1090,#1100);
#1120=CIRCLE('',#1110,70.);
#1130=CARTESIAN_POINT('',(-1.28587913910472E-14,31.8,0.));
#1140=VERTEX_POINT('',#1130);
#1150=CARTESIAN_POINT('',(12.0863309352518,30.748680948395,0.));
#1160=VERTEX_POINT('',#1150);
#1170=EDGE_CURVE('',#1140,#1160,#1120,.T.);
#1180=ORIENTED_EDGE('',*,*,#1170,.T.);
#1190=CARTESIAN_POINT('',(-12.0863309352518,30.748680948395,0.));
#1200=VERTEX_POINT('',#1190);
#1210=EDGE_CURVE('',#1200,#1140,#1120,.T.);
#1220=ORIENTED_EDGE('',*,*,#1210,.T.);
#1230=CARTESIAN_POINT('',(0.,30.7486809483951,0.));
#1240=DIRECTION('',(0.,1.,0.));
#1250=DIRECTION('',(-1.,0.,0.));
#1260=AXIS2_PLACEMENT_3D('',#1230,#1240,#1250);
#1270=CIRCLE('',#1260,12.0863309352518);
#1280=EDGE_CURVE('',#1160,#1200,#1270,.T.);
#1290=ORIENTED_EDGE('',*,*,#1280,.T.);
#1300=EDGE_LOOP('',(#1290,#1220,#1180));
#1310=FACE_OUTER_BOUND('',#1300,.T.);
#1320=ADVANCED_FACE('',(#1310),#1070,.T.);
#1330=CARTESIAN_POINT('',(0.,30.2561903701922,0.));
#1340=DIRECTION('',(0.,1.,0.));
#1350=DIRECTION('',(-1.,0.,0.));
#1360=AXIS2_PLACEMENT_3D('',#1330,#1340,#1350);
#1370=TOROIDAL_SURFACE('',#1360,12.,0.5);
#1380=CARTESIAN_POINT('',(12.,30.2561903701922,0.));
#1390=DIRECTION('',(0.,0.,-1.));
#1400=DIRECTION('',(-1.,0.,0.));
#1410=AXIS2_PLACEMENT_3D('',#1380,#1390,#1400);
#1420=CIRCLE('',#1410,0.5);
#1430=EDGE_CURVE('',#1160,#140,#1420,.T.);
#1440=ORIENTED_EDGE('',*,*,#1430,.T.);
#1450=ORIENTED_EDGE('',*,*,#1280,.F.);
#1460=CARTESIAN_POINT('',(-12.,30.2561903701922,0.));
#1470=DIRECTION('',(0.,0.,1.));
#1480=DIRECTION('',(1.,0.,0.));
#1490=AXIS2_PLACEMENT_3D('',#1460,#1470,#1480);
#1500=CIRCLE('',#1490,0.5);
#1510=EDGE_CURVE('',#1200,#230,#1500,.T.);
#1520=ORIENTED_EDGE('',*,*,#1510,.F.);
#1530=ORIENTED_EDGE('',*,*,#240,.T.);
#1540=EDGE_LOOP('',(#1530,#1520,#1450,#1440));
#1550=FACE_OUTER_BOUND('',#1540,.T.);
#1560=ADVANCED_FACE('',(#1550),#1370,.T.);
#1570=CARTESIAN_POINT('',(0.,3.5,0.));
#1580=DIRECTION('',(0.,-1.,0.));
#1590=DIRECTION('',(1.,0.,0.));
#1600=AXIS2_PLACEMENT_3D('',#1570,#1580,#1590);
#1610=CYLINDRICAL_SURFACE('',#1600,1.65);
#1620=CARTESIAN_POINT('',(-1.65,3.5,2.02066721859313E-16));
#1630=DIRECTION('',(0.,-1.,0.));
#1640=VECTOR('',#1630,1.);
#1650=LINE('',#1620,#1640);
#1660=CARTESIAN_POINT('',(-1.65,7.,2.02066721859313E-16));
#1670=VERTEX_POINT('',#1660);
#1680=EDGE_CURVE('',#1670,#950,#1650,.T.);
#1690=ORIENTED_EDGE('',*,*,#1680,.T.);
#1700=CARTESIAN_POINT('',(0.,7.,0.));
#1710=DIRECTION('',(0.,1.,0.));
#1720=DIRECTION('',(1.,0.,0.));
#1730=AXIS2_PLACEMENT_3D('',#1700,#1710,#1720);
#1740=CIRCLE('',#1730,1.65);
#1750=CARTESIAN_POINT('',(1.65,7.,0.));
#1760=VERTEX_POINT('',#1750);
#1770=EDGE_CURVE('',#1760,#1670,#1740,.T.);
#1780=ORIENTED_EDGE('',*,*,#1770,.T.);
#1790=CARTESIAN_POINT('',(1.65,3.5,0.));
#1800=DIRECTION('',(0.,-1.,0.));
#1810=VECTOR('',#1800,1.);
#1820=LINE('',#1790,#1810);
#1830=EDGE_CURVE('',#1760,#930,#1820,.T.);
#1840=ORIENTED_EDGE('',*,*,#1830,.F.);
#1850=ORIENTED_EDGE('',*,*,#980,.T.);
#1860=EDGE_LOOP('',(#1850,#1840,#1780,#1690));
#1870=FACE_OUTER_BOUND('',#1860,.T.);
#1880=ADVANCED_FACE('M4-0.7_42964',(#1870),#1610,.F.);
#1890=COLOUR_RGB('',1.,0.,0.);
#1900=FILL_AREA_STYLE_COLOUR('',#1890);
#1910=FILL_AREA_STYLE('',(#1900));
#1920=SURFACE_STYLE_FILL_AREA(#1910);
#1930=SURFACE_SIDE_STYLE('',(#1920));
#1940=SURFACE_STYLE_USAGE(.BOTH.,#1930);
#1950=PRESENTATION_STYLE_ASSIGNMENT((#1940));
#1960=CARTESIAN_POINT('',(1.6425,7.,0.));
#1970=DIRECTION('',(0.,-1.,0.));
#1980=DIRECTION('',(1.,0.,0.));
#1990=AXIS2_PLACEMENT_3D('',#1960,#1970,#1980);
#2000=PLANE('',#1990);
#2010=ORIENTED_EDGE('',*,*,#1770,.F.);
#2020=EDGE_CURVE('',#1670,#1760,#1740,.T.);
#2030=ORIENTED_EDGE('',*,*,#2020,.F.);
#2040=EDGE_LOOP('',(#2030,#2010));
#2050=FACE_OUTER_BOUND('',#2040,.T.);
#2060=CARTESIAN_POINT('',(0.,7.,0.));
#2070=DIRECTION('',(0.,1.,0.));
#2080=DIRECTION('',(1.,0.,0.));
#2090=AXIS2_PLACEMENT_3D('',#2060,#2070,#2080);
#2100=CIRCLE('',#2090,1.635);
#2110=CARTESIAN_POINT('',(1.635,7.,0.));
#2120=VERTEX_POINT('',#2110);
#2130=CARTESIAN_POINT('',(-1.635,7.,2.00229751660592E-16));
#2140=VERTEX_POINT('',#2130);
#2150=EDGE_CURVE('',#2120,#2140,#2100,.T.);
#2160=ORIENTED_EDGE('',*,*,#2150,.T.);
#2170=EDGE_CURVE('',#2140,#2120,#2100,.T.);
#2180=ORIENTED_EDGE('',*,*,#2170,.T.);
#2190=EDGE_LOOP('',(#2180,#2160));
#2200=FACE_BOUND('',#2190,.T.);
#2210=ADVANCED_FACE('',(#2050,#2200),#2000,.T.);
#2220=CARTESIAN_POINT('',(0.,8.5,0.));
#2230=DIRECTION('',(0.,-1.,0.));
#2240=DIRECTION('',(1.,0.,0.));
#2250=AXIS2_PLACEMENT_3D('',#2220,#2230,#2240);
#2260=CYLINDRICAL_SURFACE('',#2250,1.635);
#2270=CARTESIAN_POINT('',(1.635,8.5,0.));
#2280=DIRECTION('',(0.,-1.,0.));
#2290=VECTOR('',#2280,1.);
#2300=LINE('',#2270,#2290);
#2310=CARTESIAN_POINT('',(1.635,10.,0.));
#2320=VERTEX_POINT('',#2310);
#2330=EDGE_CURVE('',#2320,#2120,#2300,.T.);
#2340=ORIENTED_EDGE('',*,*,#2330,.T.);
#2350=CARTESIAN_POINT('',(0.,10.,0.));
#2360=DIRECTION('',(0.,1.,0.));
#2370=DIRECTION('',(1.,0.,0.));
#2380=AXIS2_PLACEMENT_3D('',#2350,#2360,#2370);
#2390=CIRCLE('',#2380,1.635);
#2400=CARTESIAN_POINT('',(-1.635,10.,2.00229751660592E-16));
#2410=VERTEX_POINT('',#2400);
#2420=EDGE_CURVE('',#2410,#2320,#2390,.T.);
#2430=ORIENTED_EDGE('',*,*,#2420,.T.);
#2440=CARTESIAN_POINT('',(-1.635,8.5,2.00229751660592E-16));
#2450=DIRECTION('',(0.,-1.,0.));
#2460=VECTOR('',#2450,1.);
#2470=LINE('',#2440,#2460);
#2480=EDGE_CURVE('',#2410,#2140,#2470,.T.);
#2490=ORIENTED_EDGE('',*,*,#2480,.F.);
#2500=ORIENTED_EDGE('',*,*,#2170,.F.);
#2510=EDGE_LOOP('',(#2500,#2490,#2430,#2340));
#2520=FACE_OUTER_BOUND('',#2510,.T.);
#2530=ADVANCED_FACE('',(#2520),#2260,.F.);
#2540=CARTESIAN_POINT('',(0.,10.,0.));
#2550=DIRECTION('',(0.,-1.,0.));
#2560=DIRECTION('',(1.,0.,0.));
#2570=AXIS2_PLACEMENT_3D('',#2540,#2550,#2560);
#2580=CONICAL_SURFACE('',#2570,1.635,1.02974425867666);
#2590=CARTESIAN_POINT('',(1.635,10.,0.));
#2600=DIRECTION('',(0.857167300702113,-0.515038074910054,0.));
#2610=VECTOR('',#2600,1.90744560444706);
#2620=LINE('',#2590,#2610);
#2630=CARTESIAN_POINT('',(-2.22044604925031E-16,10.9824071121101,
2.46519032881566E-32));
#2640=VERTEX_POINT('',#2630);
#2650=EDGE_CURVE('',#2640,#2320,#2620,.T.);
#2660=ORIENTED_EDGE('',*,*,#2650,.T.);
#2670=CARTESIAN_POINT('',(-1.635,10.,2.00229751660592E-16));
#2680=DIRECTION('',(-0.857167300702113,-0.515038074910054,
1.04972719113862E-16));
#2690=VECTOR('',#2680,1.90744560444706);
#2700=LINE('',#2670,#2690);
#2710=EDGE_CURVE('',#2640,#2410,#2700,.T.);
#2720=ORIENTED_EDGE('',*,*,#2710,.F.);
#2730=ORIENTED_EDGE('',*,*,#2420,.F.);
#2740=EDGE_LOOP('',(#2730,#2720,#2660));
#2750=FACE_OUTER_BOUND('',#2740,.T.);
#2760=ADVANCED_FACE('',(#2750),#2580,.F.);
#2770=CARTESIAN_POINT('',(0.,10.,0.));
#2780=DIRECTION('',(0.,-1.,0.));
#2790=DIRECTION('',(1.,0.,0.));
#2800=AXIS2_PLACEMENT_3D('',#2770,#2780,#2790);
#2810=CONICAL_SURFACE('',#2800,1.635,1.02974425867666);
#2820=ORIENTED_EDGE('',*,*,#2650,.F.);
#2830=EDGE_CURVE('',#2320,#2410,#2390,.T.);
#2840=ORIENTED_EDGE('',*,*,#2830,.F.);
#2850=ORIENTED_EDGE('',*,*,#2710,.T.);
#2860=EDGE_LOOP('',(#2850,#2840,#2820));
#2870=FACE_OUTER_BOUND('',#2860,.T.);
#2880=ADVANCED_FACE('',(#2870),#2810,.F.);
#2890=CARTESIAN_POINT('',(0.,3.04504921150154,0.));
#2900=DIRECTION('',(0.,-1.,0.));
#2910=DIRECTION('',(-1.,0.,0.));
#2920=AXIS2_PLACEMENT_3D('',#2890,#2900,#2910);
#2930=CYLINDRICAL_SURFACE('',#2920,4.5);
#2940=EDGE_CURVE('',#320,#120,#390,.T.);
#2950=ORIENTED_EDGE('',*,*,#2940,.F.);
#2960=ORIENTED_EDGE('',*,*,#560,.F.);
#2970=ORIENTED_EDGE('',*,*,#820,.T.);
#2980=ORIENTED_EDGE('',*,*,#650,.T.);
#2990=EDGE_LOOP('',(#2980,#2970,#2960,#2950));
#3000=FACE_OUTER_BOUND('',#2990,.T.);
#3010=ADVANCED_FACE('',(#3000),#2930,.T.);
#3020=CARTESIAN_POINT('',(0.,3.5,0.));
#3030=DIRECTION('',(0.,-1.,0.));
#3040=DIRECTION('',(1.,0.,0.));
#3050=AXIS2_PLACEMENT_3D('',#3020,#3030,#3040);
#3060=CYLINDRICAL_SURFACE('',#3050,1.65);
#3070=ORIENTED_EDGE('',*,*,#1680,.F.);
#3080=ORIENTED_EDGE('',*,*,#960,.T.);
#3090=ORIENTED_EDGE('',*,*,#1830,.T.);
#3100=ORIENTED_EDGE('',*,*,#2020,.T.);
#3110=EDGE_LOOP('',(#3100,#3090,#3080,#3070));
#3120=FACE_OUTER_BOUND('',#3110,.T.);
#3130=ADVANCED_FACE('',(#3120),#3060,.F.);
#3140=COLOUR_RGB('',1.,0.,0.);
#3150=FILL_AREA_STYLE_COLOUR('',#3140);
#3160=FILL_AREA_STYLE('',(#3150));
#3170=SURFACE_STYLE_FILL_AREA(#3160);
#3180=SURFACE_SIDE_STYLE('',(#3170));
#3190=SURFACE_STYLE_USAGE(.BOTH.,#3180);
#3200=PRESENTATION_STYLE_ASSIGNMENT((#3190));
#3210=CARTESIAN_POINT('',(0.,8.5,0.));
#3220=DIRECTION('',(0.,-1.,0.));
#3230=DIRECTION('',(1.,0.,0.));
#3240=AXIS2_PLACEMENT_3D('',#3210,#3220,#3230);
#3250=CYLINDRICAL_SURFACE('',#3240,1.635);
#3260=ORIENTED_EDGE('',*,*,#2150,.F.);
#3270=ORIENTED_EDGE('',*,*,#2480,.T.);
#3280=ORIENTED_EDGE('',*,*,#2830,.T.);
#3290=ORIENTED_EDGE('',*,*,#2330,.F.);
#3300=EDGE_LOOP('',(#3290,#3280,#3270,#3260));
#3310=FACE_OUTER_BOUND('',#3300,.T.);
#3320=ADVANCED_FACE('',(#3310),#3250,.F.);
#3330=CARTESIAN_POINT('',(0.,6.09009842300308,0.));
#3340=DIRECTION('',(0.,1.,0.));
#3350=DIRECTION('',(-1.,0.,0.));
#3360=AXIS2_PLACEMENT_3D('',#3330,#3340,#3350);
#3370=TOROIDAL_SURFACE('',#3360,44.5,40.);
#3380=EDGE_CURVE('',#230,#140,#210,.T.);
#3390=ORIENTED_EDGE('',*,*,#3380,.F.);
#3400=ORIENTED_EDGE('',*,*,#150,.T.);
#3410=ORIENTED_EDGE('',*,*,#2940,.T.);
#3420=ORIENTED_EDGE('',*,*,#330,.F.);
#3430=EDGE_LOOP('',(#3420,#3410,#3400,#3390));
#3440=FACE_OUTER_BOUND('',#3430,.T.);
#3450=ADVANCED_FACE('',(#3440),#3370,.F.);
#3460=CARTESIAN_POINT('',(0.,-38.2,0.));
#3470=DIRECTION('',(0.,1.,0.));
#3480=DIRECTION('',(1.,0.,0.));
#3490=AXIS2_PLACEMENT_3D('',#3460,#3470,#3480);
#3500=SPHERICAL_SURFACE('',#3490,70.);
#3510=ORIENTED_EDGE('',*,*,#1170,.F.);
#3520=EDGE_CURVE('',#1200,#1160,#1270,.T.);
#3530=ORIENTED_EDGE('',*,*,#3520,.T.);
#3540=ORIENTED_EDGE('',*,*,#1210,.F.);
#3550=EDGE_LOOP('',(#3540,#3530,#3510));
#3560=FACE_OUTER_BOUND('',#3550,.T.);
#3570=ADVANCED_FACE('',(#3560),#3500,.T.);
#3580=CARTESIAN_POINT('',(0.,30.2561903701922,0.));
#3590=DIRECTION('',(0.,1.,0.));
#3600=DIRECTION('',(-1.,0.,0.));
#3610=AXIS2_PLACEMENT_3D('',#3580,#3590,#3600);
#3620=TOROIDAL_SURFACE('',#3610,12.,0.5);
#3630=ORIENTED_EDGE('',*,*,#3520,.F.);
#3640=ORIENTED_EDGE('',*,*,#1430,.F.);
#3650=ORIENTED_EDGE('',*,*,#3380,.T.);
#3660=ORIENTED_EDGE('',*,*,#1510,.T.);
#3670=EDGE_LOOP('',(#3660,#3650,#3640,#3630));
#3680=FACE_OUTER_BOUND('',#3670,.T.);
#3690=ADVANCED_FACE('',(#3680),#3620,.T.);
#3700=CLOSED_SHELL('',(#440,#760,#1020,#1320,#1560,#1880,#2210,#2530,
#2760,#2880,#3010,#3130,#3320,#3450,#3570,#3690));
#3710=MANIFOLD_SOLID_BREP('',#3700);
#3720=CARTESIAN_POINT('',(0.,0.,0.));
#3730=DIRECTION('',(0.,0.,1.));
#3740=DIRECTION('',(1.,0.,0.));
#3750=AXIS2_PLACEMENT_3D('',#3720,#3730,#3740);
#3760=APPLICATION_CONTEXT(' ');
#3770=APPLICATION_PROTOCOL_DEFINITION(' ','automotive_design',1998,#3760
);
#3780=PRODUCT_CONTEXT('',#3760,'mechanical');
#3790=PRODUCT_DEFINITION_CONTEXT('part definition',#3760,'design');
#3800=PRODUCT('ZN-9619','ZN-9619','',(#3780));
#3810=PRODUCT_RELATED_PRODUCT_CATEGORY('part',' ',(#3800));
#3820=PRODUCT_DEFINITION_FORMATION_WITH_SPECIFIED_SOURCE('','',#3800,
.BOUGHT.);
#3830=PRODUCT_DEFINITION('',' ',#3820,#3790);
#3840=PRODUCT_DEFINITION_SHAPE('','',#3830);
#3850=DIMENSIONAL_EXPONENTS(1.,0.,0.,0.,0.,0.,0.);
#3860=DIMENSIONAL_EXPONENTS(0.,0.,0.,0.,0.,0.,0.);
#3870=DIMENSIONAL_EXPONENTS(0.,0.,0.,0.,0.,0.,0.);
#3880=(LENGTH_UNIT() NAMED_UNIT(*) SI_UNIT(.MILLI.,.METRE.));
#3890=(NAMED_UNIT(*) PLANE_ANGLE_UNIT() SI_UNIT($,.RADIAN.));
#3900=(NAMED_UNIT(*) SI_UNIT($,.STERADIAN.) SOLID_ANGLE_UNIT());
#3910=(GEOMETRIC_REPRESENTATION_CONTEXT(3) 
GLOBAL_UNCERTAINTY_ASSIGNED_CONTEXT((#3920)) 
GLOBAL_UNIT_ASSIGNED_CONTEXT((#3880,#3890,#3900)) REPRESENTATION_CONTEXT
('',''));
#3920=UNCERTAINTY_MEASURE_WITH_UNIT(LENGTH_MEASURE(1.E-6),#3880,
'distance_accuracy_value','maximum gap value');
#3930=ADVANCED_BREP_SHAPE_REPRESENTATION('',(#3750,#3710),#3910);
#3940=SHAPE_DEFINITION_REPRESENTATION(#3840,#3930);
#3950=COLOUR_RGB('',0.600000023841858,0.600000023841858,
0.600000023841858);
#3960=FILL_AREA_STYLE_COLOUR('',#3950);
#3970=FILL_AREA_STYLE('',(#3960));
#3980=SURFACE_STYLE_FILL_AREA(#3970);
#3990=SURFACE_SIDE_STYLE('',(#3980));
#4000=SURFACE_STYLE_USAGE(.BOTH.,#3990);
#4010=PRESENTATION_STYLE_ASSIGNMENT((#4000));
#4020=STYLED_ITEM('',(#4010),#3710);
#4030=OVER_RIDING_STYLED_ITEM('',(#1950),#1880,#4020);
#4040=OVER_RIDING_STYLED_ITEM('',(#3200),#3130,#4020);
#4050=DRAUGHTING_MODEL('',(#4020,#4030,#4040),#3910);
ENDSEC;
END-ISO-10303-21;
