ISO-10303-21;
HEADER;
FILE_DESCRIPTION(('Creo Elements/Direct Modeling STEP Export'),'2;1');
FILE_NAME('2205-11.stp','2024-09-12T10:39:07',(''),(''),
'Creo Elements/Direct Modeling STEP processor for AP214 (Solid Model)',
'Creo Elements/Direct Modeling 20.0  12-Nov-2016 (C) Parametric Technolo
gy GmbH','');
FILE_SCHEMA(('AUTOMOTIVE_DESIGN { 1 0 10303 214 1 1 1 1 }'));
ENDSEC;
DATA;
#10=CARTESIAN_POINT('',(-2.875,0.,0.));
#20=DIRECTION('',(-0.,1.,0.));
#30=DIRECTION('',(1.,0.,0.));
#40=AXIS2_PLACEMENT_3D('',#10,#20,#30);
#50=PLANE('',#40);
#60=CARTESIAN_POINT('',(-5.75,-4.9960036108132E-16,0.));
#70=DIRECTION('',(0.,1.,0.));
#80=DIRECTION('',(-1.,0.,0.));
#90=AXIS2_PLACEMENT_3D('',#60,#70,#80);
#100=CIRCLE('',#90,5.50701123947011);
#110=CARTESIAN_POINT('',(-0.242988760529894,-4.9960036108132E-16,0.));
#120=VERTEX_POINT('',#110);
#130=CARTESIAN_POINT('',(-11.2570112394701,-4.9960036108132E-16,0.));
#140=VERTEX_POINT('',#130);
#150=EDGE_CURVE('',#120,#140,#100,.T.);
#160=ORIENTED_EDGE('',*,*,#150,.F.);
#170=EDGE_CURVE('',#140,#120,#100,.T.);
#180=ORIENTED_EDGE('',*,*,#170,.F.);
#190=EDGE_LOOP('',(#180,#160));
#200=FACE_OUTER_BOUND('',#190,.T.);
#210=CARTESIAN_POINT('',(-5.75,0.,0.));
#220=DIRECTION('',(0.,-1.,0.));
#230=DIRECTION('',(1.,0.,0.));
#240=AXIS2_PLACEMENT_3D('',#210,#220,#230);
#250=CIRCLE('',#240,1.65);
#260=CARTESIAN_POINT('',(-4.1,-4.44089209850063E-16,0.));
#270=VERTEX_POINT('',#260);
#280=CARTESIAN_POINT('',(-7.4,0.,2.02066721859313E-16));
#290=VERTEX_POINT('',#280);
#300=EDGE_CURVE('',#270,#290,#250,.T.);
#310=ORIENTED_EDGE('',*,*,#300,.F.);
#320=EDGE_CURVE('',#290,#270,#250,.T.);
#330=ORIENTED_EDGE('',*,*,#320,.F.);
#340=EDGE_LOOP('',(#330,#310));
#350=FACE_BOUND('',#340,.T.);
#360=ADVANCED_FACE('',(#200,#350),#50,.F.);
#370=CARTESIAN_POINT('',(-5.75,0.,0.));
#380=DIRECTION('',(0.,-1.,0.));
#390=DIRECTION('',(-1.,0.,0.));
#400=AXIS2_PLACEMENT_3D('',#370,#380,#390);
#410=CONICAL_SURFACE('',#400,5.75,0.193479276861745);
#420=CARTESIAN_POINT('',(0.,0.,-7.04171909509728E-16));
#430=DIRECTION('',(0.192274409594544,-0.981341200304496,
-2.35468240267905E-17));
#440=VECTOR('',#430,29.9051756919979);
#450=LINE('',#420,#440);
#460=CARTESIAN_POINT('',(-3.37,17.2,0.));
#470=VERTEX_POINT('',#460);
#480=CARTESIAN_POINT('',(-0.0467205204689946,0.238454881918909,0.));
#490=VERTEX_POINT('',#480);
#500=EDGE_CURVE('',#470,#490,#450,.T.);
#510=ORIENTED_EDGE('',*,*,#500,.F.);
#520=CARTESIAN_POINT('',(-5.75,0.238454881918908,0.));
#530=DIRECTION('',(0.,1.,0.));
#540=DIRECTION('',(-1.,0.,0.));
#550=AXIS2_PLACEMENT_3D('',#520,#530,#540);
#560=CIRCLE('',#550,5.70327947953101);
#570=CARTESIAN_POINT('',(-11.453279479531,0.238454881918908,0.));
#580=VERTEX_POINT('',#570);
#590=EDGE_CURVE('',#580,#490,#560,.T.);
#600=ORIENTED_EDGE('',*,*,#590,.T.);
#610=CARTESIAN_POINT('',(-11.5,0.,0.));
#620=DIRECTION('',(-0.192274409594544,-0.981341200304496,0.));
#630=VECTOR('',#620,29.9051756919979);
#640=LINE('',#610,#630);
#650=CARTESIAN_POINT('',(-8.13,17.2,0.));
#660=VERTEX_POINT('',#650);
#670=EDGE_CURVE('',#660,#580,#640,.T.);
#680=ORIENTED_EDGE('',*,*,#670,.T.);
#690=CARTESIAN_POINT('',(-5.75,17.2,0.));
#700=DIRECTION('',(0.,1.,0.));
#710=DIRECTION('',(1.,0.,0.));
#720=AXIS2_PLACEMENT_3D('',#690,#700,#710);
#730=CIRCLE('',#720,2.38);
#740=EDGE_CURVE('',#660,#470,#730,.T.);
#750=ORIENTED_EDGE('',*,*,#740,.F.);
#760=EDGE_LOOP('',(#750,#680,#600,#510));
#770=FACE_OUTER_BOUND('',#760,.T.);
#780=ADVANCED_FACE('',(#770),#410,.T.);
#790=CARTESIAN_POINT('',(-5.75,20.55,0.));
#800=DIRECTION('',(0.,1.,0.));
#810=DIRECTION('',(1.,0.,0.));
#820=AXIS2_PLACEMENT_3D('',#790,#800,#810);
#830=SPHERICAL_SURFACE('',#820,4.10936734790162);
#840=CARTESIAN_POINT('',(-5.75,20.55,0.));
#850=DIRECTION('',(0.,0.,-1.));
#860=DIRECTION('',(1.,-0.,0.));
#870=AXIS2_PLACEMENT_3D('',#840,#850,#860);
#880=CIRCLE('',#870,4.10936734790162);
#890=CARTESIAN_POINT('',(-5.75,24.6593673479016,0.));
#900=VERTEX_POINT('',#890);
#910=EDGE_CURVE('',#660,#900,#880,.T.);
#920=ORIENTED_EDGE('',*,*,#910,.F.);
#930=EDGE_CURVE('',#900,#470,#880,.T.);
#940=ORIENTED_EDGE('',*,*,#930,.F.);
#950=ORIENTED_EDGE('',*,*,#740,.T.);
#960=EDGE_LOOP('',(#950,#940,#920));
#970=FACE_OUTER_BOUND('',#960,.T.);
#980=ADVANCED_FACE('',(#970),#830,.T.);
#990=CARTESIAN_POINT('',(-5.75,0.2,0.));
#1000=DIRECTION('',(0.,-1.,0.));
#1010=DIRECTION('',(-1.,0.,0.));
#1020=AXIS2_PLACEMENT_3D('',#990,#1000,#1010);
#1030=TOROIDAL_SURFACE('',#1020,5.50701123947011,0.2);
#1040=CARTESIAN_POINT('',(-11.2570112394701,0.2,0.));
#1050=DIRECTION('',(0.,0.,-1.));
#1060=DIRECTION('',(-1.,0.,0.));
#1070=AXIS2_PLACEMENT_3D('',#1040,#1050,#1060);
#1080=CIRCLE('',#1070,0.2);
#1090=EDGE_CURVE('',#140,#580,#1080,.T.);
#1100=ORIENTED_EDGE('',*,*,#1090,.F.);
#1110=ORIENTED_EDGE('',*,*,#590,.F.);
#1120=CARTESIAN_POINT('',(-0.242988760529894,0.2,0.));
#1130=DIRECTION('',(-0.,0.,1.));
#1140=DIRECTION('',(1.,0.,0.));
#1150=AXIS2_PLACEMENT_3D('',#1120,#1130,#1140);
#1160=CIRCLE('',#1150,0.2);
#1170=EDGE_CURVE('',#120,#490,#1160,.T.);
#1180=ORIENTED_EDGE('',*,*,#1170,.T.);
#1190=ORIENTED_EDGE('',*,*,#170,.T.);
#1200=EDGE_LOOP('',(#1190,#1180,#1110,#1100));
#1210=FACE_OUTER_BOUND('',#1200,.T.);
#1220=ADVANCED_FACE('',(#1210),#1030,.T.);
#1230=CARTESIAN_POINT('',(-5.75,3.5,0.));
#1240=DIRECTION('',(0.,-1.,0.));
#1250=DIRECTION('',(1.,0.,0.));
#1260=AXIS2_PLACEMENT_3D('',#1230,#1240,#1250);
#1270=CYLINDRICAL_SURFACE('',#1260,1.65);
#1280=CARTESIAN_POINT('',(-7.4,3.5,2.02066721859313E-16));
#1290=DIRECTION('',(0.,-1.,0.));
#1300=VECTOR('',#1290,1.);
#1310=LINE('',#1280,#1300);
#1320=CARTESIAN_POINT('',(-7.4,7.,2.02066721859313E-16));
#1330=VERTEX_POINT('',#1320);
#1340=EDGE_CURVE('',#1330,#290,#1310,.T.);
#1350=ORIENTED_EDGE('',*,*,#1340,.T.);
#1360=CARTESIAN_POINT('',(-5.75,7.,0.));
#1370=DIRECTION('',(0.,1.,0.));
#1380=DIRECTION('',(1.,0.,0.));
#1390=AXIS2_PLACEMENT_3D('',#1360,#1370,#1380);
#1400=CIRCLE('',#1390,1.65);
#1410=CARTESIAN_POINT('',(-4.1,7.,0.));
#1420=VERTEX_POINT('',#1410);
#1430=EDGE_CURVE('',#1420,#1330,#1400,.T.);
#1440=ORIENTED_EDGE('',*,*,#1430,.T.);
#1450=CARTESIAN_POINT('',(-4.1,3.5,0.));
#1460=DIRECTION('',(0.,-1.,0.));
#1470=VECTOR('',#1460,1.);
#1480=LINE('',#1450,#1470);
#1490=EDGE_CURVE('',#1420,#270,#1480,.T.);
#1500=ORIENTED_EDGE('',*,*,#1490,.F.);
#1510=ORIENTED_EDGE('',*,*,#320,.T.);
#1520=EDGE_LOOP('',(#1510,#1500,#1440,#1350));
#1530=FACE_OUTER_BOUND('',#1520,.T.);
#1540=ADVANCED_FACE('M4-0.7_581461',(#1530),#1270,.F.);
#1550=COLOUR_RGB('',1.,0.,0.);
#1560=FILL_AREA_STYLE_COLOUR('',#1550);
#1570=FILL_AREA_STYLE('',(#1560));
#1580=SURFACE_STYLE_FILL_AREA(#1570);
#1590=SURFACE_SIDE_STYLE('',(#1580));
#1600=SURFACE_STYLE_USAGE(.BOTH.,#1590);
#1610=PRESENTATION_STYLE_ASSIGNMENT((#1600));
#1620=CARTESIAN_POINT('',(-4.1075,7.,0.));
#1630=DIRECTION('',(0.,-1.,0.));
#1640=DIRECTION('',(1.,0.,0.));
#1650=AXIS2_PLACEMENT_3D('',#1620,#1630,#1640);
#1660=PLANE('',#1650);
#1670=ORIENTED_EDGE('',*,*,#1430,.F.);
#1680=EDGE_CURVE('',#1330,#1420,#1400,.T.);
#1690=ORIENTED_EDGE('',*,*,#1680,.F.);
#1700=EDGE_LOOP('',(#1690,#1670));
#1710=FACE_OUTER_BOUND('',#1700,.T.);
#1720=CARTESIAN_POINT('',(-5.75,7.,0.));
#1730=DIRECTION('',(0.,1.,0.));
#1740=DIRECTION('',(1.,0.,0.));
#1750=AXIS2_PLACEMENT_3D('',#1720,#1730,#1740);
#1760=CIRCLE('',#1750,1.635);
#1770=CARTESIAN_POINT('',(-4.115,7.,0.));
#1780=VERTEX_POINT('',#1770);
#1790=CARTESIAN_POINT('',(-7.385,7.,2.00229751660592E-16));
#1800=VERTEX_POINT('',#1790);
#1810=EDGE_CURVE('',#1780,#1800,#1760,.T.);
#1820=ORIENTED_EDGE('',*,*,#1810,.T.);
#1830=EDGE_CURVE('',#1800,#1780,#1760,.T.);
#1840=ORIENTED_EDGE('',*,*,#1830,.T.);
#1850=EDGE_LOOP('',(#1840,#1820));
#1860=FACE_BOUND('',#1850,.T.);
#1870=ADVANCED_FACE('',(#1710,#1860),#1660,.T.);
#1880=CARTESIAN_POINT('',(-5.75,8.5,0.));
#1890=DIRECTION('',(0.,-1.,0.));
#1900=DIRECTION('',(1.,0.,0.));
#1910=AXIS2_PLACEMENT_3D('',#1880,#1890,#1900);
#1920=CYLINDRICAL_SURFACE('',#1910,1.635);
#1930=CARTESIAN_POINT('',(-4.115,8.5,0.));
#1940=DIRECTION('',(0.,-1.,0.));
#1950=VECTOR('',#1940,1.);
#1960=LINE('',#1930,#1950);
#1970=CARTESIAN_POINT('',(-4.115,10.,0.));
#1980=VERTEX_POINT('',#1970);
#1990=EDGE_CURVE('',#1980,#1780,#1960,.T.);
#2000=ORIENTED_EDGE('',*,*,#1990,.T.);
#2010=CARTESIAN_POINT('',(-5.75,10.,0.));
#2020=DIRECTION('',(0.,1.,0.));
#2030=DIRECTION('',(1.,0.,0.));
#2040=AXIS2_PLACEMENT_3D('',#2010,#2020,#2030);
#2050=CIRCLE('',#2040,1.635);
#2060=CARTESIAN_POINT('',(-7.385,10.,2.00229751660592E-16));
#2070=VERTEX_POINT('',#2060);
#2080=EDGE_CURVE('',#2070,#1980,#2050,.T.);
#2090=ORIENTED_EDGE('',*,*,#2080,.T.);
#2100=CARTESIAN_POINT('',(-7.385,8.5,2.00229751660592E-16));
#2110=DIRECTION('',(0.,-1.,0.));
#2120=VECTOR('',#2110,1.);
#2130=LINE('',#2100,#2120);
#2140=EDGE_CURVE('',#2070,#1800,#2130,.T.);
#2150=ORIENTED_EDGE('',*,*,#2140,.F.);
#2160=ORIENTED_EDGE('',*,*,#1830,.F.);
#2170=EDGE_LOOP('',(#2160,#2150,#2090,#2000));
#2180=FACE_OUTER_BOUND('',#2170,.T.);
#2190=ADVANCED_FACE('',(#2180),#1920,.F.);
#2200=CARTESIAN_POINT('',(-5.75,10.,0.));
#2210=DIRECTION('',(0.,-1.,0.));
#2220=DIRECTION('',(1.,0.,0.));
#2230=AXIS2_PLACEMENT_3D('',#2200,#2210,#2220);
#2240=CONICAL_SURFACE('',#2230,1.635,1.02974425867666);
#2250=CARTESIAN_POINT('',(-4.115,10.,0.));
#2260=DIRECTION('',(0.857167300702112,-0.515038074910054,0.));
#2270=VECTOR('',#2260,1.90744560444706);
#2280=LINE('',#2250,#2270);
#2290=CARTESIAN_POINT('',(-5.75,10.9824071121101,2.46519032881566E-32));
#2300=VERTEX_POINT('',#2290);
#2310=EDGE_CURVE('',#2300,#1980,#2280,.T.);
#2320=ORIENTED_EDGE('',*,*,#2310,.T.);
#2330=CARTESIAN_POINT('',(-7.385,10.,2.00229751660592E-16));
#2340=DIRECTION('',(-0.857167300702112,-0.515038074910054,
1.04972719113862E-16));
#2350=VECTOR('',#2340,1.90744560444706);
#2360=LINE('',#2330,#2350);
#2370=EDGE_CURVE('',#2300,#2070,#2360,.T.);
#2380=ORIENTED_EDGE('',*,*,#2370,.F.);
#2390=ORIENTED_EDGE('',*,*,#2080,.F.);
#2400=EDGE_LOOP('',(#2390,#2380,#2320));
#2410=FACE_OUTER_BOUND('',#2400,.T.);
#2420=ADVANCED_FACE('',(#2410),#2240,.F.);
#2430=CARTESIAN_POINT('',(-5.75,0.,0.));
#2440=DIRECTION('',(0.,-1.,0.));
#2450=DIRECTION('',(-1.,0.,0.));
#2460=AXIS2_PLACEMENT_3D('',#2430,#2440,#2450);
#2470=CONICAL_SURFACE('',#2460,5.75,0.193479276861745);
#2480=EDGE_CURVE('',#490,#580,#560,.T.);
#2490=ORIENTED_EDGE('',*,*,#2480,.T.);
#2500=ORIENTED_EDGE('',*,*,#500,.T.);
#2510=EDGE_CURVE('',#470,#660,#730,.T.);
#2520=ORIENTED_EDGE('',*,*,#2510,.F.);
#2530=ORIENTED_EDGE('',*,*,#670,.F.);
#2540=EDGE_LOOP('',(#2530,#2520,#2500,#2490));
#2550=FACE_OUTER_BOUND('',#2540,.T.);
#2560=ADVANCED_FACE('',(#2550),#2470,.T.);
#2570=CARTESIAN_POINT('',(-5.75,3.5,0.));
#2580=DIRECTION('',(0.,-1.,0.));
#2590=DIRECTION('',(1.,0.,0.));
#2600=AXIS2_PLACEMENT_3D('',#2570,#2580,#2590);
#2610=CYLINDRICAL_SURFACE('',#2600,1.65);
#2620=ORIENTED_EDGE('',*,*,#1340,.F.);
#2630=ORIENTED_EDGE('',*,*,#300,.T.);
#2640=ORIENTED_EDGE('',*,*,#1490,.T.);
#2650=ORIENTED_EDGE('',*,*,#1680,.T.);
#2660=EDGE_LOOP('',(#2650,#2640,#2630,#2620));
#2670=FACE_OUTER_BOUND('',#2660,.T.);
#2680=ADVANCED_FACE('',(#2670),#2610,.F.);
#2690=COLOUR_RGB('',1.,0.,0.);
#2700=FILL_AREA_STYLE_COLOUR('',#2690);
#2710=FILL_AREA_STYLE('',(#2700));
#2720=SURFACE_STYLE_FILL_AREA(#2710);
#2730=SURFACE_SIDE_STYLE('',(#2720));
#2740=SURFACE_STYLE_USAGE(.BOTH.,#2730);
#2750=PRESENTATION_STYLE_ASSIGNMENT((#2740));
#2760=CARTESIAN_POINT('',(-5.75,8.5,0.));
#2770=DIRECTION('',(0.,-1.,0.));
#2780=DIRECTION('',(1.,0.,0.));
#2790=AXIS2_PLACEMENT_3D('',#2760,#2770,#2780);
#2800=CYLINDRICAL_SURFACE('',#2790,1.635);
#2810=ORIENTED_EDGE('',*,*,#1810,.F.);
#2820=ORIENTED_EDGE('',*,*,#2140,.T.);
#2830=EDGE_CURVE('',#1980,#2070,#2050,.T.);
#2840=ORIENTED_EDGE('',*,*,#2830,.T.);
#2850=ORIENTED_EDGE('',*,*,#1990,.F.);
#2860=EDGE_LOOP('',(#2850,#2840,#2820,#2810));
#2870=FACE_OUTER_BOUND('',#2860,.T.);
#2880=ADVANCED_FACE('',(#2870),#2800,.F.);
#2890=CARTESIAN_POINT('',(-5.75,10.,0.));
#2900=DIRECTION('',(0.,-1.,0.));
#2910=DIRECTION('',(1.,0.,0.));
#2920=AXIS2_PLACEMENT_3D('',#2890,#2900,#2910);
#2930=CONICAL_SURFACE('',#2920,1.635,1.02974425867666);
#2940=ORIENTED_EDGE('',*,*,#2310,.F.);
#2950=ORIENTED_EDGE('',*,*,#2830,.F.);
#2960=ORIENTED_EDGE('',*,*,#2370,.T.);
#2970=EDGE_LOOP('',(#2960,#2950,#2940));
#2980=FACE_OUTER_BOUND('',#2970,.T.);
#2990=ADVANCED_FACE('',(#2980),#2930,.F.);
#3000=CARTESIAN_POINT('',(-5.75,20.55,0.));
#3010=DIRECTION('',(0.,1.,0.));
#3020=DIRECTION('',(1.,0.,0.));
#3030=AXIS2_PLACEMENT_3D('',#3000,#3010,#3020);
#3040=SPHERICAL_SURFACE('',#3030,4.10936734790162);
#3050=ORIENTED_EDGE('',*,*,#2510,.T.);
#3060=ORIENTED_EDGE('',*,*,#930,.T.);
#3070=ORIENTED_EDGE('',*,*,#910,.T.);
#3080=EDGE_LOOP('',(#3070,#3060,#3050));
#3090=FACE_OUTER_BOUND('',#3080,.T.);
#3100=ADVANCED_FACE('',(#3090),#3040,.T.);
#3110=CARTESIAN_POINT('',(-5.75,0.2,0.));
#3120=DIRECTION('',(0.,-1.,0.));
#3130=DIRECTION('',(-1.,0.,0.));
#3140=AXIS2_PLACEMENT_3D('',#3110,#3120,#3130);
#3150=TOROIDAL_SURFACE('',#3140,5.50701123947011,0.2);
#3160=ORIENTED_EDGE('',*,*,#150,.T.);
#3170=ORIENTED_EDGE('',*,*,#1170,.F.);
#3180=ORIENTED_EDGE('',*,*,#2480,.F.);
#3190=ORIENTED_EDGE('',*,*,#1090,.T.);
#3200=EDGE_LOOP('',(#3190,#3180,#3170,#3160));
#3210=FACE_OUTER_BOUND('',#3200,.T.);
#3220=ADVANCED_FACE('',(#3210),#3150,.T.);
#3230=CLOSED_SHELL('',(#360,#780,#980,#1220,#1540,#1870,#2190,#2420,
#2560,#2680,#2880,#2990,#3100,#3220));
#3240=MANIFOLD_SOLID_BREP('',#3230);
#3250=CARTESIAN_POINT('',(0.,0.,0.));
#3260=DIRECTION('',(0.,0.,1.));
#3270=DIRECTION('',(1.,0.,0.));
#3280=AXIS2_PLACEMENT_3D('',#3250,#3260,#3270);
#3290=APPLICATION_CONTEXT(' ');
#3300=APPLICATION_PROTOCOL_DEFINITION(' ','automotive_design',1998,#3290
);
#3310=PRODUCT_CONTEXT('',#3290,'mechanical');
#3320=PRODUCT_DEFINITION_CONTEXT('part definition',#3290,'design');
#3330=PRODUCT('T1','T1','',(#3310));
#3340=PRODUCT_RELATED_PRODUCT_CATEGORY('part',' ',(#3330));
#3350=PRODUCT_DEFINITION_FORMATION_WITH_SPECIFIED_SOURCE('','',#3330,
.BOUGHT.);
#3360=PRODUCT_DEFINITION('',' ',#3350,#3320);
#3370=PRODUCT_DEFINITION_SHAPE('','',#3360);
#3380=DIMENSIONAL_EXPONENTS(1.,0.,0.,0.,0.,0.,0.);
#3390=DIMENSIONAL_EXPONENTS(0.,0.,0.,0.,0.,0.,0.);
#3400=DIMENSIONAL_EXPONENTS(0.,0.,0.,0.,0.,0.,0.);
#3410=(LENGTH_UNIT() NAMED_UNIT(*) SI_UNIT(.MILLI.,.METRE.));
#3420=(NAMED_UNIT(*) PLANE_ANGLE_UNIT() SI_UNIT($,.RADIAN.));
#3430=(NAMED_UNIT(*) SI_UNIT($,.STERADIAN.) SOLID_ANGLE_UNIT());
#3440=(GEOMETRIC_REPRESENTATION_CONTEXT(3) 
GLOBAL_UNCERTAINTY_ASSIGNED_CONTEXT((#3450)) 
GLOBAL_UNIT_ASSIGNED_CONTEXT((#3410,#3420,#3430)) REPRESENTATION_CONTEXT
('',''));
#3450=UNCERTAINTY_MEASURE_WITH_UNIT(LENGTH_MEASURE(1.E-6),#3410,
'distance_accuracy_value','maximum gap value');
#3460=ADVANCED_BREP_SHAPE_REPRESENTATION('',(#3280,#3240),#3440);
#3470=SHAPE_DEFINITION_REPRESENTATION(#3370,#3460);
#3480=COLOUR_RGB('',0.600000023841858,0.600000023841858,
0.600000023841858);
#3490=FILL_AREA_STYLE_COLOUR('',#3480);
#3500=FILL_AREA_STYLE('',(#3490));
#3510=SURFACE_STYLE_FILL_AREA(#3500);
#3520=SURFACE_SIDE_STYLE('',(#3510));
#3530=SURFACE_STYLE_USAGE(.BOTH.,#3520);
#3540=PRESENTATION_STYLE_ASSIGNMENT((#3530));
#3550=STYLED_ITEM('',(#3540),#3240);
#3560=OVER_RIDING_STYLED_ITEM('',(#1610),#1540,#3550);
#3570=OVER_RIDING_STYLED_ITEM('',(#2750),#2680,#3550);
#3580=DRAUGHTING_MODEL('',(#3550,#3560,#3570),#3440);
ENDSEC;
END-ISO-10303-21;
